El Padrino, Guns N´ Roses (tablatura) (ver 2)

Autor: guns_damian_roses | 34926 visualizaciones

ASI ESSSSSSSSSSSSSSSSSSSSS EL PADRINO POR QUE NO HICIERON NI 1 COMO LA GENTE.TOKENLO Y ME DICEN....

|-----------------------------------------------------------|
|-15---14-15-16--15-15---------15---14-15-16--15-15---------|
|----------------------15---------------------------14------|
|-----------------------------------------------------------|
|-----------------------------------------------------------|
|-----------------------------------------------------------|


|-----------------------------------------------------------|
|-15---14-15-18--15-14-17-15---------14-15-14---------------|
|---------------------------14-15-14------------------------|
|-----------------------------------------------------------|
|-----------------------------------------------------------|
|-----------------------------------------------------------|


|----10-13-12-10-13-10-12-10--------------------------------|
|-10--------------------------------11-13-10----------------|
|-----------------------------------------------------------|
|-----------------------------------------------------------|
|-----------------------------------------------------------|
|-----------------------------------------------------------|

                             
|----10-13-12-10-13-10-12-10--------------------------------|
|-10--------------------------------/10-9-8-----------------|
|-----------------------------------------------------------|
|-----------------------------------------------------------|
|-----------------------------------------------------------|
|-----------------------------------------------------------|

                    
|--5-6-10-10-5-6--8-8-5-6-5-8-5-6-5-8-12-12-5-10------------|
|-----------------------------------------------------------|
|-----------------------------------------------------------|
|-----------------------------------------------------------|
|-----------------------------------------------------------|
|-----------------------------------------------------------|





              
|-10-10-9-8-10/12-10----------------------------------------|
|-------------------------10----10-13-10-8----8-11-9-10-----|
|-----------------------------------------------------------|
|-----------------------------------------------------------|
|-----------------------------------------------------------|
|-----------------------------------------------------------|

                                
|----10-13-12-10-13-10-12-10--------------------------------|
|-10--------------------------------11-13-10----------------|
|-----------------------------------------------------------|
|-----------------------------------------------------------|
|-----------------------------------------------------------|
|-----------------------------------------------------------|

                             
|----10-13-12-10-13-10-12-10--------------------------------|
|-10--------------------------------/10-9-8-----------------|
|-----------------------------------------------------------|
|-----------------------------------------------------------|
|-----------------------------------------------------------|
|-----------------------------------------------------------|

  
|--5-6-10-10-5-6--8-8-5-6-5-8-5-6-5-8-12-12-9-10------------|
|-----------------------------------------------------------|
|-----------------------------------------------------------|
|-----------------------------------------------------------|
|-----------------------------------------------------------|
|-----------------------------------------------------------|
Calificar esta versión:
Aviso: Este fichero es trabajo propio de su transcriptor y representa su interpretación personal de la canción. El material contenido en esta página es para exclusivo uso privado, por lo que se prohibe su reproducción o retransmisión, así como su uso para fines comerciales.
Más versiones de El Padrino, Guns N´ Roses
El Padrino
tablatura
El Padrino (ver 2)
tablatura
El Padrino (ver 3)
tablatura
El Padrino (ver 4)
tablatura
El Padrino (ver 5)
tablatura
El Padrino (ver 6)
tablatura
Descubre más canciones de Guns N´ Roses