Siempre Fuiste Mi Amor, Git (tablatura) (ver 2)

Autor: Anónimo | 43728 visualizaciones



Intro

 e||--------------------------------||
 B||--------------------------------||
 G||-------------------7-------7----||
 D||-4-4-4-4/7-7-7-7-7---7---7---7--||
 A||-----------------------9--------||
 E||--------------------------------||

 e||--------------------------------||
 B||--------------------------------||
 G||-------------------7-------7----||
 D||-4-4-4-4/7-7-7-7-7---7---7------||
 A||-----------------------9--------||
 E||--------------------------------||

 e||--------------------------------||
 B||--------------------------------||
 G||-------------------7-------7----||
 D||-4-4-4-4/7-7-7-7-7---7---7---7--||
 A||-----------------------9--------||
 E||--------------------------------||

 e||--------------------------------||
 B||--------------------------------||
 G||-------------------7-------7----||
 D||-4-4-4-4/7-7-7-7-7---7---7------||
 A||-----------------------9--------||
 E||--------------------------------||


Estoy loco
yo ya no puedo entender
la gente esta tan dura
que ya no se puede creer
voy buscando
Algo no me importa que
Que tenga en algún lado
Algo que al menos venga bien

(Intro)

Cruzando la esquina
Te veo y vuelvo a recordar
Aquella medicina
Que nos gustaba saborear
De hecho esta vacía(De hecho esta vacía)
Me escapo solo al caminar
Soñando en la vida
te veo y vuelvo a empezar

(Pre Coro)

 e||--333-3-3-3-32--||
 B||--333-3-3-3-33--||
 G||--222-2-2-2-22--|| x3 (esto se toca al ritmo d la voz)
 D||----------------||
 A||----------------||
 E||----------------||

Si te estas sintiendo sola
Me podes venir a ver
Hace tiempo fuiste mi amor

      D   A   D   A
 e||--22-0---022-0------||
 B||--33-022-033-02222--||
 G||--22-022-022-02222--||
 D||------22------2222--||
 A||--------------------||
 E||--------------------||


 e||--333-3-3-3-32--||
 B||--333-3-3-3-33--||
 G||--222-2-2-2-22--|| x3 (esto se toca al ritmo d la voz)
 D||----------------||
 A||----------------||
 E||----------------||

Si te estas sintiendo sola
Me podes venir a ver
Hace tiempo fuiste mi am

(Coro)
moooooooooooooooooooooooooooor
D        A        Bm        G
MI amor
D        A        Bm        G
Mi amoooooooooooooooooooooooor
D        A        Bm        G
MI amor
D        A        Bm        G
Mi amoooooooooooooooooooooooor
Siempre fuiste, siempre fuiste
D        A        Bm        G


y así sucesivamente, luego entra el intro en el minuto 1:57,
luego los acordes del coro se tocan al compás de la batería en
el minuto 3:10 hasta el 3:22 y en el minuto 3:30 se toca el
intro acompañado por los acordes del coro...y bueno eso es todo,
me despido hasta la proxima...





Calificar esta versión:
Aviso: Este fichero es trabajo propio de su transcriptor y representa su interpretación personal de la canción. El material contenido en esta página es para exclusivo uso privado, por lo que se prohibe su reproducción o retransmisión, así como su uso para fines comerciales.
Más versiones de Siempre Fuiste Mi Amor, Git
Siempre Fuiste Mi Amor
acordes
Siempre Fuiste Mi Amor
tablatura
Siempre Fuiste Mi Amor (ver 2)
tablatura
Siempre Fuiste Mi Amor
bajo
Descubre más canciones de Git