Siempre Fuiste Mi Amor, Git (bajo)

Autor: Anónimo | 19074 visualizaciones



|------------------------------------------------------------------------------------|
|------------------------------------------------------------------------------------|
|--5555555555555555-22222222222222222222-5555555555555555-22222222222222222222-------|
|------------------------------------------------------------------------------------|

|------------------------------------------------------------------------------------|
|------------------------------------------------------------------------------------|
|--5-0-2---5-0-2---5-0-2---5-0-2---5-0-2---5-0-2---5-0-2---5-0-2---------------------|
|----------------------------------------5---------------5---------------------------|

|------------------------------------------------------------------------------------|
|------------------------------------------------------------------------------------|
|--5555555555555555-22222222222222222222---------------------------------------------|
|------------------------------------------------------------------------------------|

|------------------------------------------------------------------------------------|
|------------------------------------------------------------------------------------|
|--5-0-2---5-0-2-------5-0-2-----5-0-2----------5-0-2----5-0-2---5-0-2-----5-0-2-----|
|--------7--------5-7--------5-7--------5-7-7-5--------5-------5-------5-7-------5-7-|

|------------------------------------------------------------------------------------|
|------------------------------------------------------------------------------------|
|--555555555555555555555555555555555555555555555555-----5--5-0--0-5--5-0-------------|
|------------------------------------------------------------------------------------|


|------------------------------------------------------------------------------------|
|------------------------------------------------------------------------------------|
|--555555555555555555555555555555555555555555555555----------------------------------|
|------------------------------------------------------------------------------------|


|------------------------------------------------------------------------------------|
|------------------------------------------------------------------------------------|
|--5--5-0--0-2--2------5--5-0--0-2--2------5--5-0--0-2--2------5--5-0--0-2--2--------|
|-----------------3--3----------------3--3----------------3--3----------------3------|

|------------------------------------------------------------------------------------|
|------------------------------------------------------------------------------------|
|--5-5-0-0-2-2-----5-5-0-0-2-2-----5--5-0--0-2--2-----5-5-0-0-2-2--------------------|
|--------------3-3-------------3-3----------------3-3-------------3-3----------------|

|------------------------------------------------------------------------------------|
|------------------------------------------------------------------------------------|
|--5555555555555555-22222222222222222222-5555555555555555-22222222222222222222-------|
|------------------------------------------------------------------------------------|

|------------------------------------------------------------------------------------|
|------------------------------------------------------------------------------------|
|--555555555555555555555555555555555555555555555555----------------------------------|
|------------------------------------------------------------------------------------|

|------------------------------------------------------------------------------------|
|------------------------------------------------------------------------------------|
|--5--5-0--0-2--2------5--5-0--0-2--2------5--5-0--0-2--2------5--5-0--0-2--2--------|
|-----------------3--3----------------3--3----------------3--3----------------3------|

|------------------------------------------------------------------------------------|
|------------------------------------------------------------------------------------|
|--5-5-0-0-2-2-----5-5-0-0-2-2-----5--5-0--0-2--2-----5-5-0-0-2-2--------------------|
|-------------3-3--------------3-3----------------3-3-------------3-3----------------|

|------------------------------------------------------------------------------------|
|------------------------------------------------------------------------------------|
|--5-5-0-0-2-2------5--5-0--0-2--2--------5-5-0-0-2-2------5--5-0--0-2--2------------|
|-------------3-3------------------3--3---------------3-3------------------3--3------|

|------------------------------------------------------------------------------------|
|------------------------------------------------------------------------------------|
|--5-5-0-0-2-2------5--5-0--0-2--2--------5-5-0-0-2-2------5--5-0--0-2--2------------|
|-------------3-3------------------3--3---------------3-3------------------3--3------|

|------------------------------------------------------------------------------------|
|------------------------------------------------------------------------------------|
|--5-5-0-0-2-2-----5-5-0-0-2-2-----5-5-0-0-2-2-----5-5-0-0-2-2-----------------------|
|--------------3-3-------------3-3-------------3-3-------------3-3-------------------|

|------------------------------------------------------------------------------------|
|------------------------------------------------------------------------------------|
|--5--5-0--0-2--2------5--5-0--0-2--2------------------------------------------------|
|-----------------3--3----------------3----------------------------------------------|

|------------------------------------------------------------------------------------|
|------------------------------------------------------------------------------------|
|--5-5-0-0-2-2------5--5-0--0-2--2--------5-5-0-0-2-2------5--5-0--0-2--2------------|
|-------------3-3------------------3--3---------------3-3------------------3--3------|

|------------------------------------------------------------------------------------|
|------------------------------------------------------------------------------------|
|--5-5-0-0-2-2------5--5-0--0-2--2--------5-5-0-0-2-2------5--5-0--0-2--2------------|
|-------------3-3------------------3--3---------------3-3------------------3--3------|

Cualquier consulta, haganmela a mi mail [email protected] este tab esta perfecto
lo revise mas de 100 veces jejeje.. disfrutenlo





Calificar esta versión:
Aviso: Este fichero es trabajo propio de su transcriptor y representa su interpretación personal de la canción. El material contenido en esta página es para exclusivo uso privado, por lo que se prohibe su reproducción o retransmisión, así como su uso para fines comerciales.
Más versiones de Siempre Fuiste Mi Amor, Git
Siempre Fuiste Mi Amor
acordes
Siempre Fuiste Mi Amor
tablatura
Siempre Fuiste Mi Amor (ver 2)
tablatura
Siempre Fuiste Mi Amor
bajo
Descubre más canciones de Git