Siempre Fuiste Mi Amor, Git (acordes)

Autor: Anónimo | 34086 visualizaciones

lamiresimsol


             *******************************************
             * UNA BUENA CANCION PARA DEDICAR A UNA EX!*
             *******************************************

Y EMPIEZA ASI:

  Re  Sim   x 2 [bajo]

Y el punteo de la guitarra asi:

                Re
 E||--------------------------------||
 B||-----------------3-3-----3-3----||
 G||-----2-2---2---2-------2--------||
 D||-4-4-----4---4-------4----------||
 A||--------------------------------||
 E||--------------------------------||
                Sim
 E||--------------------------------||
 B||-----------------3-3-----3-3----||
 G||-----2-2---2---2-------2--------||
 D||-4-4-----4---4-------4----------||
 A||--------------------------------||
 E||--------------------------------||

LUEGO COMIENZA LA CANCION

Re    Sim      Re          Sim
Estoy loco, yo ya no puedo entender
Re                Sim       Re              Sim
la gente está tan dura, que ya no se puede creer
Re        Sim      Re            Sim
Voy buscando, algo no me importa qué
Re                 Sim        Re                 Sim
que tenga en algún lado, algo que al menos venga bien

Re  Sim  [x1]

                Re
 E||--------------------------------||
 B||-----------------3-3-----3-3----||
 G||-----2-2---2---2-------2--------||
 D||-4-4-----4---4-------4----------||
 A||--------------------------------||
 E||--------------------------------||
                Sim
 E||--------------------------------||
 B||-----------------3-3-----3-3----||
 G||-----2-2---2---2-------2--------||
 D||-4-4-----4---4-------4----------||
 A||--------------------------------||
 E||--------------------------------||

Re              Sim      Re              Sim
Cruzando la esquina, te veo y vuelvo a recordar
Re            Sim  Re               Sim
aquella medicina, que nos gustaba saborear
Re             Sim     Re          Sim
de hecho está vacía, escapo solo a caminar
Re           Sim      Re              Sim
soñándome la vida, te veo y vuelvo a empezar

Sol                     La    Sol                 La
  Si te estás sintiendo sola   me podés venir a ver
Sol                  La  Re    Re La Re La
  Hace tiempo fuiste mi amor
Sol                     La Sol               La
 Si te estás sintiendo sola me podés venir a ver
Sol                  La  Re  La Sim Sol Re La Sim
 Hace tiempo fuiste mi amor,      mi amor

Sol Re La Sim Sol Re La Sim
mí amor,      Mi amor
Sol Re           La      Sim
mi amor [siempre fuiste, siempre fuiste]
Sol Re           La      Sim        Sol
mi amor [siempre fuiste, fuiste mi amor]
Sol Re           La      Sim        Sol
mi amor [siempre fuiste, fuiste mi amor]
Sol Re           La      Sim        Sol
mi amor [siempre fuiste, fuiste mi amor]

 Re  Sim [x2]

               Re
 E||--------------------------------||
 B||-----------------3-3-----3-3----||
 G||-----2-2---2---2-------2--------||
 D||-4-4-----4---4-------4----------||
 A||--------------------------------||
 E||--------------------------------||
                Sim
 E||--------------------------------||
 B||-----------------3-3-----3-3----||
 G||-----2-2---2---2-------2--------||
 D||-4-4-----4---4-------4----------||
 A||--------------------------------||
 E||--------------------------------||

Sol                     La    Sol                 La
  Si te estás sintiendo sola   me podés venir a ver
Sol                  La  Re    Re La Re La
  Hace tiempo fuiste mi amor
Sol                     La Sol               La
 Si te estás sintiendo sola me podés venir a ver
Sol                  La  Re  La Sim Sol Re La Sim
 Hace tiempo fuiste mi amor,      mi amor

Sol Re La Sim Sol Re La Sim
mí amor,      Mi amor
Sol Re           La      Sim
mi amor [siempre fuiste, siempre fuiste]
Sol Re           La      Sim        Sol
mi amor [siempre fuiste, fuiste mi amor]
Sol Re           La      Sim        Sol
mi amor [siempre fuiste, fuiste mi amor]
Sol Re           La      Sim        Sol
mi amor [siempre fuiste, fuiste mi amor]

La cancion concluye con el punteo de la guitarra q es la misma.

***********************************/******************************
* UN SALUDO CORDIAL PARA ROY, CARLOS [LA BANDA] Y PARA LAS FANS… *
******************************************************************





Calificar esta versión:
Aviso: Este fichero es trabajo propio de su transcriptor y representa su interpretación personal de la canción. El material contenido en esta página es para exclusivo uso privado, por lo que se prohibe su reproducción o retransmisión, así como su uso para fines comerciales.
Más versiones de Siempre Fuiste Mi Amor, Git
Siempre Fuiste Mi Amor
acordes
Siempre Fuiste Mi Amor
tablatura
Siempre Fuiste Mi Amor (ver 2)
tablatura
Siempre Fuiste Mi Amor
bajo
Descubre más canciones de Git