Siempre Fuiste Mi Amor, Git (tablatura)

Autor: Anónimo | 23365 visualizaciones



Acá les va la tablatura del tema, el intermedio
es como el inicio. Les puse como va el bajo en la 
VI cuerda, esto es independiente de la guitarra.

Intro: (los numeros en paralelo se tocan juntos)

-1|----------------------------|
-2|----------------------------|
-3|---------------------7-----7|
-4|-----4----7----7----7----7--|
-5|-----5-------7----9----9----|
-6|-bajo:10-10-10-10-10-10--10-|
                                                                              
-1|-------------------------|
-2|-------------------------|
-3|--------------------7---7|
-4|-----4----7---7---7---7--|
-5|-----5------7---9----9---|
-6|-bajo:7-7-7-7-7-7-7-7-7--|

-1|-------------------------|
-2|-------------------------|
-3|--------------------7---7|
-4|-----4----7---7---7---7--|
-5|-----5------7---9----9---|
-6|-bajo:10-10-10-10-10-10--|

-1|-------------------------|
-2|-------------------------|
-3|--------------------7---7|
-4|-----4----7---7---7---7--|
-5|-----5------7---9----9---|
-6|-bajo:7-7-7-7-7-7-7-7-7--|


canción:
solo bajo
-1|-----------------------------------|
-2|-----------------------------------|
-3|---5-0-2----------------5-0-2------|
-4|------------5--------------------5-|
  
     Estoy loco.....o ya no puedo entender
     La gentes esta tan dura, que ya no se .....

RE (bajo en re)
si te estas sintiendo sola ,
me podes venir
hace tiempo fuiste mi amor.....

RE LA SIm SOL  RE LA SIm SOL
MI amor,       MI amor,      MI amor.....

intermedio como la entrada.

Cualquier consulta, reclamo o corrección , escribanme.





Calificar esta versión:
Aviso: Este fichero es trabajo propio de su transcriptor y representa su interpretación personal de la canción. El material contenido en esta página es para exclusivo uso privado, por lo que se prohibe su reproducción o retransmisión, así como su uso para fines comerciales.
Más versiones de Siempre Fuiste Mi Amor, Git
Siempre Fuiste Mi Amor
acordes
Siempre Fuiste Mi Amor
tablatura
Siempre Fuiste Mi Amor (ver 2)
tablatura
Siempre Fuiste Mi Amor
bajo
Descubre más canciones de Git