Sunshine Of Your Love, Cream (tablatura) (ver 7)

Autor: frog sand | 33414 visualizaciones

sunshine is your love
6|---------7-6-5--0-3-0--|
5|-7-7-5-7---------------|por 2
4|-----------------------|

6|-7-7-5-7---------------|
5|---------6-5-4--0-3-0--|por6
4|-----------------------|

6|---------9-8-7--0-5-0--|
5|-9-9-7-9---------------|por2
4|-----------------------|

6|-9-9-7-9---------------|
5|---------9-8-7--0-5-0--|por2
4|-----------------------|


vueno es todo eso asta el coro y el solo(qe no me los se aun)
Calificar esta versión:
Aviso: Este fichero es trabajo propio de su transcriptor y representa su interpretación personal de la canción. El material contenido en esta página es para exclusivo uso privado, por lo que se prohibe su reproducción o retransmisión, así como su uso para fines comerciales.