Sunshine Of Your Love, Cream (tablatura) (ver 4)

Autor: muse_juan | 16901 visualizaciones

 
 -------------------------------------------------------
 -------------------------------------------------------
 ------------------------------------------------------- x2
 --12-12-10-12------------------------------------------
 --------------12-11-10---8-----------------------------
 -----------------------10-10---------------------------


 -------------------------------------------------------
 -------------------------------------------------------
 --------------------------10--------------------------- x6
 ------------------------12--12-------------------------
 --12-12--10-12--12-11-10-------------------------------
 --10-10--8--10-----------------------------------------


 -------------------------------------------------------
 -------------------------------------------------------
 ------------------------------------------------------- x2
 --12-12--10-12--12-11-10----8--------------------------
 --10-10--8--10------------10-10------------------------
 -------------------------------------------------------


 -------------------------------------------------------
 -------------------------------------------------------
 ------------------------------------------------------- x2
 -------------------------------------------------------
 --12-12--10-12--12-11-10---8---------------------------
 --10-10--8--10-----------10-10-------------------------


 -------------------------------------------------------
 -------------------------------------------------------
 ------------------------------------------------------- 
 ---------5---------------------------------------------
 --7-7-7--3-5-------------------------------------------
 --5-5-5----3-------------------------------------------
       -
      - -
     - l -
    -  l  -
       l
       l
     ESto se repite cuantas veces sean necesarias


bueno pss ahi se los dejo es lo unico q e sacado

Comentarios del colaborador: bueno pss ahi se los dejo es lo unico q e sacado

Calificar esta versión:
Aviso: Este fichero es trabajo propio de su transcriptor y representa su interpretación personal de la canción. El material contenido en esta página es para exclusivo uso privado, por lo que se prohibe su reproducción o retransmisión, así como su uso para fines comerciales.