Sunshine Of Your Love, Cream (tablatura) (ver 5)

Autor: Hernan_Guns | 34349 visualizaciones

Si buscan la real con solo incluido aca ta

e|------------------------------------------------------------|
b|------------------------------------------------------------|
G|------------------------------------------------------------|
D|-7-7-5-7----------------------------------------------------|
A|---------7-6-5---0-3-0--------------------------------------|
E|------------------------------------------------------------|

e|------------------------------------------------------------|
b|------------------------------------------------------------|
G|------------------------------------------------------------|
D|-7-7-5-7----------------------------------------------------|
A|---------7-6-5---0-3-0--------------------------------------|
E|------------------------------------------------------------|

e|------------------------------------------------------------|
b|------------------------------------------------------------|
G|-7-7-5------------------------------------------------------|
D|-------7-5-6------------------------------------------------|
A|-------------5-8-5------------------------------------------|
E|------------------------------------------------------------|

e|------------------------------------------------------------|
b|------------------------------------------------------------|
G|-5-5-3-5--------5-8-----------------------------------------|
D|-7-7-7-7--7-6-5-7-10----------------------------------------|
A|-7-7-7-7--7-6-5-7-10----------------------------------------|
E|----------5-4-3---------------------------------------------|

Verso:
e|------------------------------------------------------------|
b|------------------------------------------------------------|
G|-5-5-3-5--------5-8-----------------------------------------|
D|-7-7-7-7--7-6-5-7-10----------------------------------------|
A|-7-7-7-7--7-6-5-7-10----------------------------------------|
E|----------5-4-3---------------------------------------------|

e|------------------------------------------------------------|
b|------------------------------------------------------------|
G|-5-5-3-5--------5-8-----------------------------------------|
D|-7-7-7-7--7-6-5-7-10----------------------------------------|
A|-7-7-7-7--7-6-5-7-10----------------------------------------|
E|----------5-4-3---------------------------------------------|

e|------------------------------------------------------------|
b|------------------------------------------------------------|
G|-5-5-3-5--------5-8-----------------------------------------|
D|-7-7-7-7--7-6-5-7-10----------------------------------------|
A|-7-7-7-7--7-6-5-7-10----------------------------------------|
E|----------5-4-3---------------------------------------------|

e|------------------------------------------------------------|
b|------------------------------------------------------------|
G|-5-5-3-5--------5-8-----------------------------------------|
D|-7-7-7-7--7-6-5-7-10----------------------------------------|
A|-7-7-7-7--7-6-5-7-10----------------------------------------|
E|----------5-4-3---------------------------------------------|

e|------------------------------------------------------------|
b|------------------------------------------------------------|
G|-5-5-3-5--------5-8-----------------------------------------|
D|-7-7-7-7--7-6-5-7-10----------------------------------------|
A|-7-7-7-7--7-6-5-7-10----------------------------------------|
E|----------5-4-3---------------------------------------------|

e|------------------------------------------------------------|
b|------------------------------------------------------------|
G|-5-5-3-5--------5-8-----------------------------------------|
D|-7-7-7-7--7-6-5-7-10----------------------------------------|
A|-7-7-7-7--7-6-5-7-10----------------------------------------|
E|----------5-4-3---------------------------------------------|

e|------------------------------------------------------------|
b|------------------------------------------------------------|
G|-5-5-3-5--------5-8-----------------------------------------|
D|-7-7-7-7--7-6-5-7-10----------------------------------------|
A|-7-7-7-7--7-6-5-7-10----------------------------------------|
E|----------5-4-3---------------------------------------------|

e|------------------------------------------------------------|
b|------------------------------------------------------------|
G|-5-5-3-5--------5-8-----------------------------------------|
D|-7-7-7-7--7-6-5-7-10----------------------------------------|
A|-7-7-7-7--7-6-5-7-10----------------------------------------|
E|----------5-4-3---------------------------------------------|

e|------------------------------------------------------------|
b|------------------------------------------------------------|
G|-5-5-3-5--------5-8-----------------------------------------|
D|-7-7-7-7--7-6-5-7-10----------------------------------------|
A|-7-7-7-7--7-6-5-7-10----------------------------------------|
E|----------5-4-3---------------------------------------------|

Estribillo:
e|------------------------------------------------------------|
b|------------------------------------------------------------|
G|------------------------------------------------------------|
D|-7-7-7--10-5-----7------------------------------------------|
A|-7-7-7--10-5--x3-5-x13--------------------------------------|
E|-5-5-5---8-3-----5------------------------------------------|

Otra vez:

e|------------------------------------------------------------|
b|------------------------------------------------------------|
G|-5-5-3-5--------5-8-----------------------------------------|
D|-7-7-7-7--7-6-5-7-10----------------------------------------|
A|-7-7-7-7--7-6-5-7-10----------------------------------------|
E|----------5-4-3---------------------------------------------|

Verso:
e|------------------------------------------------------------|
b|------------------------------------------------------------|
G|-5-5-3-5--------5-8-----------------------------------------|
D|-7-7-7-7--7-6-5-7-10----------------------------------------|
A|-7-7-7-7--7-6-5-7-10----------------------------------------|
E|----------5-4-3---------------------------------------------|

e|------------------------------------------------------------|
b|------------------------------------------------------------|
G|-5-5-3-5--------5-8-----------------------------------------|
D|-7-7-7-7--7-6-5-7-10----------------------------------------|
A|-7-7-7-7--7-6-5-7-10----------------------------------------|
E|----------5-4-3---------------------------------------------|

e|------------------------------------------------------------|
b|------------------------------------------------------------|
G|-5-5-3-5--------5-8-----------------------------------------|
D|-7-7-7-7--7-6-5-7-10----------------------------------------|
A|-7-7-7-7--7-6-5-7-10----------------------------------------|
E|----------5-4-3---------------------------------------------|

e|------------------------------------------------------------|
b|------------------------------------------------------------|
G|-5-5-3-5--------5-8-----------------------------------------|
D|-7-7-7-7--7-6-5-7-10----------------------------------------|
A|-7-7-7-7--7-6-5-7-10----------------------------------------|
E|----------5-4-3---------------------------------------------|

e|------------------------------------------------------------|
b|------------------------------------------------------------|
G|-5-5-3-5--------5-8-----------------------------------------|
D|-7-7-7-7--7-6-5-7-10----------------------------------------|
A|-7-7-7-7--7-6-5-7-10----------------------------------------|
E|----------5-4-3---------------------------------------------|

e|------------------------------------------------------------|
b|------------------------------------------------------------|
G|-5-5-3-5--------5-8-----------------------------------------|
D|-7-7-7-7--7-6-5-7-10----------------------------------------|
A|-7-7-7-7--7-6-5-7-10----------------------------------------|
E|----------5-4-3---------------------------------------------|

e|------------------------------------------------------------|
b|------------------------------------------------------------|
G|-5-5-3-5--------5-8-----------------------------------------|
D|-7-7-7-7--7-6-5-7-10----------------------------------------|
A|-7-7-7-7--7-6-5-7-10----------------------------------------|
E|----------5-4-3---------------------------------------------|

e|------------------------------------------------------------|
b|------------------------------------------------------------|
G|-5-5-3-5--------5-8-----------------------------------------|
D|-7-7-7-7--7-6-5-7-10----------------------------------------|
A|-7-7-7-7--7-6-5-7-10----------------------------------------|
E|----------5-4-3---------------------------------------------|

Estribillo:
e|------------------------------------------------------------|
b|------------------------------------------------------------|
G|------------------------------------------------------------|
D|-7-7-7--10-5-----7------------------------------------------|
A|-7-7-7--10-5--x3-5-x13--------------------------------------|
E|-5-5-5---8-3-----5------------------------------------------|

Solo(De base esta el ritmo del estribillo): 
e|-------------------------------------------------------------|
b|------------------------------12--------10-------------------|
G|-12(14)--12(14)~~~--12-12(14)----12(14)----12-12(14)~~--9(11)9p7-|
D|-------------------------------------------------------------|
A|-------------------------------------------------------------|
E|-------------------------------------------------------------|

e|-------------------------------------------------------------|
b|-----9(11)-----------------9(11)9(11)9-----------------------|
G|-9-7-9(11)--7~~~-------7h9-9(11)9(11)9--7h9p7~~--10(13)-10(13)-10(13)-|
D|-------------------7h9---------------------------------------|
A|-------------------------------------------------------------|
E|-------------------------------------------------------------|


e|-------------------------------------------------------------|
B|-------------------------------------------------------------|
-10(12)-10(12)~--10-----9(11)----7~-9(11)-----7h9-7-9(11)---7h9(11)
G|------------------12---------9----------7h9-------------9----|
A|-------------------------------------------------------------|
E|-------------------------------------------------------------|

e|-------------------------------------------------------------|
B|--------------------------------/13--------------------------
-10(12)-9(11)--7-9----7h9-7~~~--/14--\12-10-11----10~----------10h11~|
G|--------------------9--------------------------12-----12----12-|
A|---------------------------------------------------------12--|
E|-------------------------------------------------------------|

e|-12-10-------------------------------------------------------|
B|------------------------------13-------------------------13--
-------10(12)----10-12(14)~~-----12(14)-12-10~-12-12(14)----12-10-|
G|--------------12---------------------------------------------|
A|-------------------------------------------------------------|
E|-------------------------------------------------------------|

e|--------------10---------------------------------------------|
B|--------10-10------------------------------------------------|
-12(14)----------12(14)12p10----10(12)----------------------10----10
G|-----------------------------12--------12-------10----10----10h12-10h12-|
A|------------------------------------------12-12-10h12-10h12--|
E|-------------------------------------------------------------|

e|-------------------------------------------------------------|
-10--12----------13----13-13h15-13--------------------13----15(17)-13-15-|
B|-10--12p10--/14~----14-------------14\12-10(12)-12/14----14--|
G|-------------------------------------------------------------|
A|-------------------------------------------------------------|
E|-------------------------------------------------------------|

e|13-----------------------------------------------------------
13-15-13------------------------------13-13-13-13--------------|
B|---------14\12-10(12)-------12-10-/14----14-14-14-14\12-10(12)-|
G|----------------------12-12------------------------------------12p10---10h12-|
A|--------------------------------------------------------------12-|
E|-------------------------------------------------------------|


Vuelve a:
e|------------------------------------------------------------|
b|------------------------------------------------------------|
G|-5-5-3-5--------5-8-----------------------------------------|
D|-7-7-7-7--7-6-5-7-10----------------------------------------|
A|-7-7-7-7--7-6-5-7-10----------------------------------------|
E|----------5-4-3---------------------------------------------|

Verso:
e|------------------------------------------------------------|
b|------------------------------------------------------------|
G|-5-5-3-5--------5-8-----------------------------------------|
D|-7-7-7-7--7-6-5-7-10----------------------------------------|
A|-7-7-7-7--7-6-5-7-10----------------------------------------|
E|----------5-4-3---------------------------------------------|

e|------------------------------------------------------------|
b|------------------------------------------------------------|
G|-5-5-3-5--------5-8-----------------------------------------|
D|-7-7-7-7--7-6-5-7-10----------------------------------------|
A|-7-7-7-7--7-6-5-7-10----------------------------------------|
E|----------5-4-3---------------------------------------------|

e|------------------------------------------------------------|
b|------------------------------------------------------------|
G|-5-5-3-5--------5-8-----------------------------------------|
D|-7-7-7-7--7-6-5-7-10----------------------------------------|
A|-7-7-7-7--7-6-5-7-10----------------------------------------|
E|----------5-4-3---------------------------------------------|

e|------------------------------------------------------------|
b|------------------------------------------------------------|
G|-5-5-3-5--------5-8-----------------------------------------|
D|-7-7-7-7--7-6-5-7-10----------------------------------------|
A|-7-7-7-7--7-6-5-7-10----------------------------------------|
E|----------5-4-3---------------------------------------------|

e|------------------------------------------------------------|
b|------------------------------------------------------------|
G|-5-5-3-5--------5-8-----------------------------------------|
D|-7-7-7-7--7-6-5-7-10----------------------------------------|
A|-7-7-7-7--7-6-5-7-10----------------------------------------|
E|----------5-4-3---------------------------------------------|

e|------------------------------------------------------------|
b|------------------------------------------------------------|
G|-5-5-3-5--------5-8-----------------------------------------|
D|-7-7-7-7--7-6-5-7-10----------------------------------------|
A|-7-7-7-7--7-6-5-7-10----------------------------------------|
E|----------5-4-3---------------------------------------------|

e|------------------------------------------------------------|
b|------------------------------------------------------------|
G|-5-5-3-5--------5-8-----------------------------------------|
D|-7-7-7-7--7-6-5-7-10----------------------------------------|
A|-7-7-7-7--7-6-5-7-10----------------------------------------|
E|----------5-4-3---------------------------------------------|

e|------------------------------------------------------------|
b|------------------------------------------------------------|
G|-5-5-3-5--------5-8-----------------------------------------|
D|-7-7-7-7--7-6-5-7-10----------------------------------------|
A|-7-7-7-7--7-6-5-7-10----------------------------------------|
E|----------5-4-3---------------------------------------------|

e|------------------------------------------------------------|
b|------------------------------------------------------------|
G|-5-5-3-5--------5-8-----------------------------------------|
D|-7-7-7-7--7-6-5-7-10----------------------------------------|
A|-7-7-7-7--7-6-5-7-10----------------------------------------|
E|----------5-4-3---------------------------------------------|

Estribillo: 

e|------------------------------------------------------------|
b|------------------------------------------------------------|
G|------------------------------------------------------------|
D|-7-7-7--10-5-----7------------------------------------------|
A|-7-7-7--10-5--x3-5-Hasta el final de la cansion-------------|
E|-5-5-5---8-3-----5------------------------------------------|

________________________________________________________________

s= Slide
v= Vibrato
h= Hammer
P=Pull



/= Slide
~= Vibrato
h= Hammer
p= pull



Si no les gusta hay tabla
Calificar esta versión:
Aviso: Este fichero es trabajo propio de su transcriptor y representa su interpretación personal de la canción. El material contenido en esta página es para exclusivo uso privado, por lo que se prohibe su reproducción o retransmisión, así como su uso para fines comerciales.