Sunshine Of Your Love, Cream (tablatura) (ver 6)

Autor: megatincho | 40626 visualizaciones



[----------------------------------------------------------------
[----------------------------------------------------------------
[------------------------------------------------------------8---
[-12-12--10-12------------------x3----12-12-10-12---------10--10-
[--------------12-11-10----8----x3----------------12-11-10-------
[-----------------------10---10-x3-------------------------------


[-----------------------------------------------------
[-----------------------------------------------------
[-----------------------------------------------------
[-----------------------------------------------------
[-9-9--7-9--9-8-7---5-----7-7--5-7--7-6-5----3--------
[-9-9--7-9--------7---7---7-7--5-7---------5---5------

Comentarios del colaborador: bueno espero q les guste es una cancion fasil de aprender y con mucha alma bueno nos vemos

Calificar esta versión:
Aviso: Este fichero es trabajo propio de su transcriptor y representa su interpretación personal de la canción. El material contenido en esta página es para exclusivo uso privado, por lo que se prohibe su reproducción o retransmisión, así como su uso para fines comerciales.