La Planta, Caos (tablatura)

Autor: danny_yasmin | 37369 visualizaciones



La Planta
Caos

Simbologia ejemplificada:
-12h14-    hammer on
-14p12-    pull off
-12s13-    slide
-(12)--    nota fantasma

IMPORTANTE, para no confundirnos:
-12ññ--    mantener sonando la nota, NO es un vibrato
-12vññ-    vibrato
-12br--    bend and release (estirar y soltar)
-12bñr-    lo mismo pero mas lento
-12bññ-    solo estirar, claro

Durante el solo de las trompetas (no sé ni como se llama,
ni como se pueda transcribir, 
pero el sonido que se
oye antes de que entren las trompetas, 
se hace deslizando la plumilla sobre 
la sexta cuerda desde el lado izquierdo 
hacia el lado derecho):

    C   D   G D Em
e|--------------------|
B|--------------------|
G|--5---7-----5-------|
D|--5---7---5-5-2-----|
A|--3---5---5-3-2-----|
E|----------3---0-----|


El solo (En mi pedalera yo utilizo el efecto que se llama 
'WAH+DO', ustedes pueden utilizar cualquier tipo de 'WAH-WAH'.  
¡Es mas! Aunque no lo utilizen se oye bien, 
pero se pierde la esencia de la canción):

e|-----7-------------10s12bñr-----10h12-10----------|
B|--5s8--10p8-10-8----------------------------7s8-8-|
G|--------------------------------------------------|
D|--------------------------------------------------|
A|--------------------------------------------------|
E|--------------------------------------------------|

e|--------------------------------------------------|
B|-8-7-7-7-5ññ--------------------------------------|
G|--------------------------------------------------|
D|--------------------------------------------------|
A|--------------------------------------------------|
E|--------------------------------------------------|

Éste es el bueno.  Éste es el solo del final. ¡Disfrutenlo!

e|--------------------------------------------------|
B|----8---------------------------------------------|
G|-5s7-7-9vññ----7-9-7------------------------------|
D|------------7h9------9br8br7br--------------------|
A|------------------------------10-7-5h6h7----------|
E|--------------------------------------------------|

e|--------------------------------------------------|
B|--------------------------------------------------|
G|-----7-9-7--9s11br11br11br11bññ-9vññ--------------|
D|--7h9---------------------------------------------|
A|--------------------------------------------------|
E|--------------------------------------------------|

e|--------------------------------------------------|
B|--------------------------------------------------|
G|-----7-9-7----------------------------------------|
D|--7h9------9br8br7br------------------------------|
A|---------------------10-7-5h6h7-------------------|
E|--------------------------------------------------|

e|-----------7-7-7-7bññ-----------------------------|
B|-----------7-7-7-7bññ-----------------------------|
G|-----7-9-7------------9vññ------------------------|
D|--7h9---------------------------------------------|
A|--------------------------------------------------|
E|--------------------------------------------------|

e|--------------------------------------------------|
B|--------------------------------------------------|
G|-----7-9-7----------------------------------------|
D|--7h9------9br8br7br------------------------------|
A|---------------------10-7-5h6h7-------------------|
E|--------------------------------------------------|

e|-----------15p12---15p12---15p12---15p12---15p12--|
B|----------------12------12------12------12------12|
G|-----7-9-7----------------------------------------|
D|--7h9---------------------------------------------|
A|--------------------------------------------------|
E|--------------------------------------------------|

e|--------------------------------------------------|
B|--------------------------------------------------|
G|----------7-9-7-----------------------------------|
D|-7----7h9------9br8br7br--------------------------|
A|------------------------10-7-5h6h7----------------|
E|--------------------------------------------------|

e|--------------------------------------------------|
B|-------------------------------------12-15--------|
G|-----7-9-7-11bñr12bñr9vññ--11-12--15--------------|
D|--7h9---------------------------------------------|
A|--------------------------------------------------|
E|--------------------------------------------------|

e|--------------------------------------------------|
B|--12h15p12-12h15p12-12h15p12-12h15p12-12h15p12----|
G|--------------------------------------------------|
D|--------------------------------------------------|
A|--------------------------------------------------|
E|--------------------------------------------------|

e|--------12vññ12vññ12vññ-12s0----------------------|
B|--15vññ-------------------------------------------|
G|--------------------------------------------------|
D|--------------------------------------------------|
A|--------------------------------------------------|
E|--------------------------------------------------|

¡Qué plantón!


Ahora van los cordes:

    Em      Em    Esus4     D     Dsus4     C
e|--0--| |--7--| |--7--| |--2--| |--0--| |--0--|
B|--0--| |--8--| |--7--| |--3--| |--3--| |--1--|
G|--0--| |--9--| |--9--| |--2--| |--2--| |--0--|
D|--2--| |--9--| |--9--| |--0--| |--0--| |--2--|
A|--2--| |--7--| |--7--| |--0--| |--0--| |--3--|
E|--0--| |--7--| |--7--| |--0--| |--0--| |--3--|

    G       B7
e|--3--| |--2--|
B|--3--| |--0--|
G|--0--| |--2--|
D|--0--| |--1--|
A|--2--| |--2--|
E|--3--| |--0--|


Em                                    C
  Si tu piensas que me haz roto la maseta,

             D                           Em
  no te preocupes, ya me acostumbré a regarla.
 
                                 C 
  Y ya te me estabas pasando de verde,

             D                          Em
  mañana te secas, yo me consigo otra planta.

                  C           D Dsus4 D    Em Esus4 Em
  Pero que sea desértica, oh si,        desertica,

                  C           D Dsus4 D    Em Esus4 Em
  pero que sea desértica, oh si,        desertica,

                     C           D Dsus4 D
  así si la riego o no, no me preocupo, 

                 G   D    Em
  porque va a estar muy bien, 

                     C             D Dsus4
  asi si la riego o no, ya no me apuro,

                       G - D - Em
  como la regue contigo.

                      C                D Dsus4 D
  Y que un solo jardinero, recoja el fruto,

           G           D         Em
  no como tu que ya estabas recogida

                        C
  y si es que otro se anima,

              B7                          Em
  pues buena suerte, a ver si no se espina.

                C    D               Em Esus4 Em
  Y te pareces tanto, a una enredadera,

                           C               D
  en cualquier tronco te atoras, y le das vueltas,

             G              D             Em
  con tus ramitas que se enredan donde quieran

                     C             B7             Em
  y entre tanto ramerío, ya te apodamos, la ramera.


Solo de trompetas y de guitarra: C - D - G - D - Em (dos veces)



                      C                D Dsus4 D
  Y que un solo jardinero, recoja el fruto,

           G           D         Em
  no como tu que ya estabas recogida

                        C
  y si es que otro se anima,

              B7                          Em
  pues buena suerte, a ver si no se espina.

                C    D               Em Esus4 Em
  Y te pareces tanto, a una enredadera,

                           C               D
  en cualquier tronco te atoras, y le das vueltas,

             G              D             Em
  con tus ramitas que se enredan donde quieran

                     C             B7             Em
  y entre tanto ramerío, ya te apodamos, la ramera.

                  C           D Dsus4 D    Em Esus4 Em
  Pero que sea desértica, oh si,        desertica,

                  C           D Dsus4 D    Em Esus4 Em
  pero que sea desértica, oh si,        desertica,


                  C           D Dsus4 D    Em Esus4 Em
  Pero que sea desértica, oh si,        desertica,

Em    Em
¡Eh! ¡Eh!






Comentarios del colaborador: Espero que les guste cualquier duda o sugerencia escribirme [email protected] y ademas esta dedicada a todas las mujeres infieles

Calificar esta versión:
Aviso: Este fichero es trabajo propio de su transcriptor y representa su interpretación personal de la canción. El material contenido en esta página es para exclusivo uso privado, por lo que se prohibe su reproducción o retransmisión, así como su uso para fines comerciales.
Más versiones de La Planta, Caos
La Planta
acordes
La Planta (ver 2)
acordes
La Planta (ver 3)
acordes
La Planta
tablatura
La Planta
bajo
La Planta (ver 2)
bajo
La Planta
bateria
Descubre más canciones de Caos