La Planta, Caos (bajo)

Autor: Anónimo | 31332 visualizaciones



Hay que prestar atencion a los tiempos que tiene el bajo
ya que varia de compas en compas...

  Intro
  Em    C      D    Em      C    B7      Em  
G|------------|------------|------------|------------|
D|2-----------|-----2------|------------|2-----------|
A|------3-----|5-----210---|3----2------|--2-1-0-----|
E|------------|---------320|------------|-------3-2-0|

 Pero que sea desertica...x2
     C         D            Em
G|------------|------------|-----------------|
D|-----2---5--|---4---7----|2-------2--------|
A|15s3--------|5-----------|-210-----210-----|
E|------------|------------|----320-----320--|

 Asi si la riego no...x2
  C            D            G     D      Em
G|------------|------------|------------|-----------|
D|------------|------------|5555--4444--|2222222----|
A|3-33-33-33-3|5-55-55-55-5|------------|--------5--|
E|------------|------------|------------|-----------|

  Y que un solo jardinero...
  C     D      G     D      Em       C   B7  Em
G|----------2-|------------|------------|-----------|
D|--2-5---4---|2-2---4-4---|2222222-----|----20-----|
A|3-----5-----|------------|-------5-333|222--210---|
E|------------|------------|------------|--------320|

  Pero que sea desertica... ( alterado )
  C            D            Em
G|------------|------------|------------|-----------|
D|------------|------------|------------|20---------|
A|1s31s31s31s3|3s53s53s53s5|5s75s75s75s7|---210-----|
E|------------|------------|------------|-------320-|

  Pero que sea desertica... ( normal )
  C            D            Em
G|------------|---------2--|---------------|
D|-----2----5-|-----4------|2------2-------|
A|3-----------|5-----------|-210----210----|
E|------------|------------|----320----320-|

  Solo de guitarra...x4
  Em           Bm           Em          
G|------------|------------|-----------|
D|------------|------------|222--------|
A|7------575--|------------|---0233222s|VA LIGADO CON 
E|---5s7------|7-6-5-3-2-0-|-----------|EL Em DEL PRIMER
                                        COMPAS

DUDAS, PREGUNTAS Y COMENTARIOS ESCRIBE A:
 la [email protected]





Calificar esta versión:
Aviso: Este fichero es trabajo propio de su transcriptor y representa su interpretación personal de la canción. El material contenido en esta página es para exclusivo uso privado, por lo que se prohibe su reproducción o retransmisión, así como su uso para fines comerciales.
Más versiones de La Planta, Caos
La Planta
acordes
La Planta (ver 2)
acordes
La Planta (ver 3)
acordes
La Planta
tablatura
La Planta
bajo
La Planta (ver 2)
bajo
La Planta
bateria
Descubre más canciones de Caos