La Planta, Caos (bajo) (ver 2)

Autor: Anónimo | 16381 visualizaciones



       
      
   Colaboracion de Manuel de Jesus Guel 
   [email protected] 
   
   Banda:Caos
   Cansio:La Planta

     
    
Denjenme desirles que soy amigo del bajista de caos y me 
paso esta rola original

Intro

2 veces
G--------------------
D--------------------
A-----3---2----------
E-0-----------0------  
    
Pero que sea desertica oh si.... x2

G------------------------------------------------------------------
D------------5-------------7-----------------------2---------------
A---3----7-------5-----9-------7-----3-2-0------------3-2----------
E-------------------------------------------3-2-0----------3-2-0---

Asi si la riego o no, no me preocupo...... x2

G-----------------------------------------------
D-----------------------------------------------
A-33333333--5555555-----------------------------
E----------------------3-33--2-22--0--0-0-0-00--

Y que un solo jardinero recoja el fruto.....

G--------------------------------------------------
D--------------------------------------------------
A-33333333--5555555-----------------3-2-0----------
E--------------------3-33--2-22--0---------3-2-0---

y sies que otro se anima......... 

G----5----------------------------------------
D-------5-------------------------------------
A-3--------3---2---------7-5------------------
E---------------------0------7-5-3-5-3-0------

y te parces tanto amor a una enrredadera.....

G-------------------------------------------------------------
D----------5-------------7-----------------------2------------
A-3----7-------5----9--------7-----3-2-0-----------3-2--------
E-----------------------------------------3-2-0---------3-2-0-


G------------------------------------------------------
D----------5------------7------------------------------
A-3----7-------5----9----------------------------------
E----------------------------3-33--2-22--0--0-0-0-00---


G--------------------------------------------------
D--------------------------------------------------
A-33333333--5555555-----------------3-2-0----------
E--------------------3-33--2-22--0---------3-2-0---


G----5----------------------------------------
D-------5-------------------------------------
A-3--------3---2---------7-5------------------
E---------------------0------7-5-3-5-3-0------

solo de guitarra   x2

G------------------------------------------------------
D----------5------------7------------------------------
A-3----7-------5----9----------------------------------
E----------------------------3-33--2-22--0--0-0-0-00---


G------------------------------------------------
D------------------------------------------------
A-3333333333-5555555555--------------------------
E------------------------3-33-2-2-0---0-0-0-00---

y que un solo jardinero recoja el fruto.......

G--------------------------------------------------
D--------------------------------------------------
A-33333333--5555555-----------------3-2-0----------
E--------------------3-33--2-22--0---------3-2-0---

y sies que otro se anima......... 

G----5----------------------------------------
D-------5-------------------------------------
A-3--------3---2---------7-5------------------
E---------------------0------7-5-3-5-3-0------

y te pareces tanto amor a una enrredadera...  

G-------------------------------------------------------------
D----------5-------------7-----------------------2------------
A-3----7-------5----9--------7-----3-2-0-----------3-2--------
E-----------------------------------------3-2-0---------


G------------------------------------------------------
D----------5------------7------------------------------
A-3----7-------5----9----------------------------------
E----------------------------3-33--2-22--0--0-0-0-00---

y entre tanto ramerio ya te apodamos.....

G----5----------------------------------------
D-------5-------------------------------------
A-3--------3---2---------7-5------------------
E---------------------0------7-5-3-5-3-0------

parte rapida, pero que sea desertica...
x2
G------------------------------------------------
D------------------------------------------------
A-3-333-333-333-3-5-555-555-5-7-777-777----------
E------------------------------------------------

G------------------------------------------------
D-----------------------------esto es despacio---
A-3-333-333-333-3-5-555-555-5---7-5--------------
E-----------------------------0-----7-5-3-5-3-0


G-------------------------------------------------------------
D----------5-------------7-----------------------2------------
A-3----7-------5----9--------7-----3-2-0-----------3-2--------
E-----------------------------------------3-2-0---------


G-----------------------------------------------------
D-----------5----------------7------------------------
A-3----7--------5------9----------7----3-2-0----------
E---------------------------------------------3-2-0---

esto es lo ultimo

G----------------------------------------------------
D----------------------------------------------------
A-7-7---5-7------------7-7---5-7-5-4-----------------
E-----7-----7-6-5-3-0------7-------------------------


saludos pa LAREDO





Calificar esta versión:
Aviso: Este fichero es trabajo propio de su transcriptor y representa su interpretación personal de la canción. El material contenido en esta página es para exclusivo uso privado, por lo que se prohibe su reproducción o retransmisión, así como su uso para fines comerciales.
Más versiones de La Planta, Caos
La Planta
acordes
La Planta (ver 2)
acordes
La Planta (ver 3)
acordes
La Planta
tablatura
La Planta
bajo
La Planta (ver 2)
bajo
La Planta
bateria
Descubre más canciones de Caos