Ayer Me Dijo Un Ave, Caifanes (tablatura) (ver 2)

Autor: Anónimo | 24868 visualizaciones

introdución
Se toca dos veces
Riff 1                       Riff 2
E-----------9------------   ----------7h--|
B---------9--9----9------   -------7h-----|
G------11------11----11--   ------9-------|
D----9-------------------   ----9---------|
A------------------------   --------------|
E-0----------------------   --0-----------|

verso                
Riff3 (2veces)             Riff4(1 vez)
E----------------         E-------------------4---|
B-----------5----         B-------5---------5---5-|
G-----6--4----6--         G------4--------4-------|
D----6-----------         D----7--------7---------|
A--4-------------         A--8--------8-----------|
E----------------         E-----------------------|


Coro
Riff5 (2 veces)            Riff6 (2veces)              
E---------------         E--------------|
B------------5--         B------5---5---|
G-------6--4----         G----4---4-----| 
D-----6---------         D--------------|
A---0-----------         A--------------|
E---------------         E--7-----------|

puente(riff2)
se toca despues de cada coro y al terminar la pieza.


Solo
E-----7---------9----------9--12---16--12-9--12-9--|
B----9--9-----7---7--9----9------------------------|
G--9-----9--8----------6---------------------------|


E-----7---------9----------9--12--9------9---------|
B----9--9-----7---7--9----9---------9------9-------|
G--9-----9--8----------6--------------9------------|

Fuente original: LaCuerda
Colaborador original: julio Solano [juioboludo@hotmail.com]
Calificar esta versión:
Aviso: Este fichero es trabajo propio de su transcriptor y representa su interpretación personal de la canción. El material contenido en esta página es para exclusivo uso privado, por lo que se prohibe su reproducción o retransmisión, así como su uso para fines comerciales.
Más versiones de Ayer Me Dijo Un Ave, Caifanes
Ayer Me Dijo Un Ave
acordes
Ayer Me Dijo Un Ave (ver 2)
acordes
Ayer Me Dijo Un Ave
tablatura
Ayer Me Dijo Un Ave (ver 2)
tablatura
Ayer Me Dijo Un Ave (ver 3)
tablatura
Ayer Me Dijo Un Ave (ver 4)
tablatura
Ayer Me Dijo Un Ave
bajo
Ayer Me Dijo Un Ave
teclado
Ayer Me Dijo Un Ave
armonica
Descubre más canciones de Caifanes