Ayer Me Dijo Un Ave, Caifanes (tablatura)

Autor: Anónimo | 16553 visualizaciones

Ya era hora de tener esta cancion tan cool!!! sin errores...


INTRO x2:

    E/B???                   B/E???

e-------------9------------------------------
B-----------9---9----9------------------12---
G--------11-------11---11---------9--11------
D------9------------------------9------------
A--------------------------------------------
E---0------------------------0---------------


VERSO:
    C#m x2:

e---------------0---
B------------0------
G---------6---------
D------6------------
A---4---------------
E-------------------

    E x1:

e---------------0---
B------------0------
G-------------------
D---------6---------
A------7------------
E---0---------------

    G#m x1:

e---------------4---
B------------5------
G---------4---------
D------6------------
A---6---------------
E-------------------

   C#m x4:

e---------------0---
B------------0------
G---------6---------
D------6------------
A---4---------------
E-------------------


    E x1:

e---------------0---
B------------0------
G-------------------
D---------6---------
A------7------------
E---0---------------

    G#m x1:

e---------------4---
B------------5------
G---------4---------
D------6------------
A---6---------------
E-------------------

   C#m x2:

e---------------0---
B------------0------
G---------6---------
D------6------------
A---4---------------
E-------------------


CORO: x2

    A x2:

e---------------0---
B------------0------
G---------6---------
D------7------------
A---0---------------
E-------------------

    Bx2

e---------------0---
B------------0------
G---------9---------
D------9------------
A-------------------
E---7---------------

FINAL DEL CORO:

    B

e---------------------
B----------------12---
G---------9--11-------
D------9--------------
A---------------------
E---7-----------------

SOLO: (CON ARMONICOS)


e--------------------------------------------------------------------------------0(12)--4(16)--0(12)------------------------
B-----------------0(12)------------------------------2(14)----------------2(14)------------------------------2(14)--4(16)---
G----------1(13)---------1(13)----------------1(13)----------------1(13)------------------------------1(13)-----------------
D---2(14)-----------------------2(14)--1(13)--------------------------------------------------------------------------------
A-----------------------------------------------------------4(16)-----------------------------------------------------------
E---------------------------------------------------------------------------------------------------------------------------

e---------------------------------------------------------------------------------------0(12)---------0(12)----------
B-----------------0(12)------------------------------2(14)-----------------------2(14)---------2(14)---------2(14)---
G----------1(13)---------1(13)----------------1(13)-----------------------1(13)--------------------------------------
D---2(14)-----------------------2(14)--1(13)-----------------------2(14)---------------------------------------------
A-----------------------------------------------------------4(16)----------------------------------------------------
E--------------------------------------------------------------------------------------------------------------------

PUENTE: (ESTE ES EL PEQUEÑO PUENTE Q LLEVA CASI AL FINAL CUNDO CAMBIA DEL CORO AL VERSO, EN DONDE DICE 
PARA QUE NADIE TE HAGA DAÑO)

e-------------------
B---5--5--5---------
G---6--6--6--4------
D------------4--7---
A---------------0---
E-------------------




   C#m                  E
Ayer me dijo un ave que volara

G#m                 C#m
por donde no haya ardor

                                E
que lo sufrido no resucita en suenios

G#m                C#m
y en rezos nunca murio



 A                       B
Que saque el aire de mis ojos

 A                       B
que abrace el miedo con tus suenios

 A                       B
que sea un guerrero de sangre

  C#m
para que nadie te haga danio



   C#m                 E
Ayer me dijo un ave que volara

G#m              C#m
hasta desintegrarme

                          E
que la distancia no es cansancio

G#m            C#m
es fuerza eres tu.



 A                       B
Que saque el aire de mis ojos

 A                            B
que abrace el miedo con tus suenios

 A                       B
que sea un guerrero de sangre

  C#m                    C#m B A   (SE REPITE VARIAS VECES)
para que nadie te haga dano



Esta tablatura no tiene errores jejeje, y se la quiero dedicar
a mis mas grandes amigos: a mis compañeros de banda de hace tiempo
Joelillo por su apoyo?, a Pacheko x nada, a la niña Merlyana por todo, a Claudia x cool,
a Mayrita x nada, al buen Nestor por amenazarme, a Rafita x mamon, y  Rea por que si,...y a mi 
Mariposa de menta por aguantar mis loqueras existenciales,
jajajaja, y muy especialmente a mi amigo Gerardo Reyes Olán, auque nos hemos alejado sabs
q las mejores aventuras la pasamos juntos dude, nunca mas desconfies
de mi porfavor!!! jejeje comentarios a mi mail... CNDA DL XCSO ROCKS... ALEXIA!!!...

Fuente original: LaCuerda
Colaborador original: Xavier Plascencia Sánchez [xavier_hs69@hotmail.com]
Calificar esta versión:
Aviso: Este fichero es trabajo propio de su transcriptor y representa su interpretación personal de la canción. El material contenido en esta página es para exclusivo uso privado, por lo que se prohibe su reproducción o retransmisión, así como su uso para fines comerciales.
Más versiones de Ayer Me Dijo Un Ave, Caifanes
Ayer Me Dijo Un Ave
acordes
Ayer Me Dijo Un Ave (ver 2)
acordes
Ayer Me Dijo Un Ave
tablatura
Ayer Me Dijo Un Ave (ver 2)
tablatura
Ayer Me Dijo Un Ave (ver 3)
tablatura
Ayer Me Dijo Un Ave (ver 4)
tablatura
Ayer Me Dijo Un Ave
bajo
Ayer Me Dijo Un Ave
teclado
Ayer Me Dijo Un Ave
armonica
Descubre más canciones de Caifanes