Ayer Me Dijo Un Ave, Caifanes (bajo)

Autor: Anónimo | 29821 visualizaciones



Intro.
e ||---------------9------------------------7~-||
B ||------------9----9----9--------------7-----||
G ||.-------11---------11---11--------9-------.||
D ||.-----9-------------------------9---------.||
A ||-------------------------------------------||
E ||---0-------------------------0~------------||

Riff 1
e ||------------------------------------|-------------------------------4------|
B ||--------------5-----------------5---|-------------5--------------5---------|
G ||.-------6--4------------6---4-------|----------4--------------4------------|
D ||.----6---------------6--------------|-------6--------------6---------------|
A ||---4--------------4-----------------|----7--------------6------------------|
E ||------------------------------------|-0~-----------------------------------|

e ------------------------------------||
B --------------5-----------------5---|| 
G --------6--4------------6---4------.||
D -----6---------------6-------------.||
A ---4--------------4-----------------||
E ------------------------------------||

Riff 2
e ||--------------0--------------0----|----------0---0--------0---0------------|
B ||-----------0--------------0-------|------------0------------0--------------|
G ||--------6--------------6----------|-------4------------4-------------------|
D ||------7--------------7------------|----------------------------------------|
A ||---0--------------0---------------|---2-------------2----------------------|
E ||----------------------------------|----------------------------------------|

h h A.H.--|

e ||--------------0--------------0----|------------0---------------------------|
B ||-----------0--------------0-------|------------0---------------------------|
G ||--------6--------------6----------|------------4-----------------9----9----|
D ||------7--------------7------------|----------------------------9----9------|
A ||---0--------------0---------------|---2--2--2-----------2-3-4--------------|
E ||----------------------------------|----------------------------------------|


SOLO.
e ------7-------------9--7-------------9--12---16--12-----9---11--|
B ----9----9-------7--------9--------9-----------------9----------|
G --9--------9--8---------------6---------------------------------|
D ----------------------------------------------------------------|
A ----------------------------------------------------------------|
E ----------------------------------------------------------------|

e ------7-------------9--7-------------9--12--9-----9-------------|
B ----9----9-------7--------9--------9-----------9-----9----------|
G --9--------9--8---------------6---------------------------------|
D ----------------------------------------------------------------|
A ----------------------------------------------------------------|
E ----------------------------------------------------------------|


Intro
Con Riff 1
Ayer me dijo un ave que volara
por donde no haya ardor
que lo sufrido no resucita en sueños 
y en rezos nunca murió
 
CORO con Riff 2
Que saque el aire de mis ojos
que abrace el miedo con tus sueños
que sea un guerrero de sangre
para que nadie te haga daño

SOLO

Con Riff 1
Ayer me dijo un ave que volara
hasta desintegrarme
que la distancia no es cansancio
es fuerza eres tu

CORO. (con riff 2)

Interludio con cuerdas Con Riff 1

CORO. (Con Riff 2) A partir de este coro comienzan las variaciones al final del
riff 2 con rasgeo
Para que nadie te haga daño. 
Para que nadie te haga daño. 
Para que nadie te haga daño.

Fuente original: LaCuerda
Colaborador original: Raúl Niembro Estrabeau [[email protected]]





Calificar esta versión:
Aviso: Este fichero es trabajo propio de su transcriptor y representa su interpretación personal de la canción. El material contenido en esta página es para exclusivo uso privado, por lo que se prohibe su reproducción o retransmisión, así como su uso para fines comerciales.
Más versiones de Ayer Me Dijo Un Ave, Caifanes
Ayer Me Dijo Un Ave
acordes
Ayer Me Dijo Un Ave (ver 2)
acordes
Ayer Me Dijo Un Ave
tablatura
Ayer Me Dijo Un Ave (ver 2)
tablatura
Ayer Me Dijo Un Ave (ver 3)
tablatura
Ayer Me Dijo Un Ave (ver 4)
tablatura
Ayer Me Dijo Un Ave
bajo
Ayer Me Dijo Un Ave
teclado
Ayer Me Dijo Un Ave
armonica
Descubre más canciones de Caifanes