Ayer Me Dijo Un Ave, Caifanes (tablatura) (ver 3)

Autor: YOGY | 38009 visualizaciones

Intro:
|-----------9-----------|---------7~--|
|---------9---9----9----|-------7-----|
|*-----11-------11---11-|-----9------*|
|*---9------------------|---9--------*|
|-----------------------|-------------|
|--0--------------------|-0-----------|

Verso1:
|---------0---------0-|---------0---------4-|---------0---------0-|
|-------0---------0---|-------0---------4---|-------0---------0---|
|*----6---------6-----|---------------4-----|-----6---------6----*|
|*--6---------6-------|-----6-------4-------|---6---------6------*|
|-4---------4---------|-7-7-------2---------|-4---------4---------|
|---------------------|-0-------------------|---------------------|
   Ayer me dijo un ave que volara, por donde no hay ardor,
que lo sufrido no resucita en sueños, y en rezos nunca murió,

Coro:
|----------0---------0-|---------0---------0--|
|--------0---------0---|-------0---------0----|
|*-----6---------6-----|-----9---------9-----*|
|*---6---------6-------|---9---------9-------*|
|--0---------0---------|----------------------|
|----------------------|-7---------7----------|
     que saque el aire de mis ojos,
     que abrace al miedo con rus sueños,

|---------0---------0-|--------0~--------x-----------------7*-|
|-------0---------0---|--------0~--------x---------------7*---|
|-----6---------6-----|--------9~--------x-------------9------|
|---6---------6-------|--------9~--------x-----------9--------|
|-0---------0---------|------------------x--------------------|
|---------------------|-7-7-7------------x-----7-8-9----------|
 que sea un guerrero de sangre para que nadie te haga daño

Solo:
Son armónicos artificiales, el número fuera de los paréntesis
indica dónde debes pisar la cuerda; y el número dentro de los
parentesis indica dónde debes hacer el armonico. Para hacer el
armónico, usa el dedo índice de la mano izquierda poniendolo
suavemente sobre la cuerda y tocando la cuerda con el dedo
gordo de la misma mano.

|---------------------------|----------------------------------|
|-----------0(12)-----------|------------2(14)-0(12)-----------|
|------1(13)-----1(13)------|-----------------------1(13)------|
|-2(14)---------------2(14)-|-1(13)-4(16)----------------------|
|---------------------------|----------------------------4(16)-|
|---------------------------|----------------------------------|

|-----------0(12)-4(16) 0(12)-|------------------|
|------2(14)------------------|------2(14)-4(16)-|
|-1(13)-----------------------|-1(13)------------|
|-----------------------------|------------------|
|-----------------------------|------------------|
|-----------------------------|------------------|

|---------------------------|----------------------------------|
|-----------0(12)-----------|------------2(14)-0(12)-----------|
|------1(13)-----1(13)------|-----------------------1(13)------|
|-2(14)---------------2(14)-|-1(13)-4(16)----------------------|
|---------------------------|----------------------------4(16)-|
|---------------------------|----------------------------------|

|-----------0(12)------|------------|
|------2(14)-----2(14)-|------2(14)-|
|-1(13)----------------|-1(13)------|
|----------------------|------------|
|----------------------|------------|
|----------------------|------------|

Verso2:
|---------0---------0-|---------0---------4-|---------0---------0-|
|-------0---------0---|-------0---------4---|-------0---------0---|
|-----6---------6-----|---------------4-----|-----6---------6-----|
|---6---------6-------|-----6-------4-------|---6---------6-------|
|-4---------4---------|-7-7-------2---------|-4---------4---------|
|---------------------|-0-------------------|---------------------|
    Ayer me dijo un ave que volara, hasta desintegrarme,

|---------0---------0-|---------0---------4-|---------0-------0-----|
|-------0---------0---|-------0---------4---|-------0---------0-----|
|-----6---------6-----|---------------4-----|-----6---------6----4--|
|---6---------6-------|-----6-------4-------|---6---------6------4--|
|-4---------4---------|-7-7-------2---------|-4---------4--------2--|
|---------------------|-0-------------------|-----------------------|
   que la distancia no es cansancio, es fuerza, eres tú

Coro igual que antes

Puente:
Mientras entran los violines y el piano,
se toca de fondo lo mismo que en el verso2

e|----------7--------7~----9~--|----------9--7~----9~-----12~---|
B|-9~----------9~--------------|-9~-----------------------------|
G|-------9---------------------|-------9------------------------|

Coro:
|----------0---------0-|---------0---------0--|
|--------0---------0---|-------0---------0----|
|*-----6---------6-----|-----9---------9-----*|
|*---6---------6-------|---9---------9-------*|
|--0---------0---------|----------------------|
|----------------------|-7---------7----------|
     que saque el aire de mis ojos,
     que abrace al miedo con rus sueños,

|---------0---------0-|--------0~------------------|
|-------0---------0---|--------0~------------------|
|-----6---------6-----|--------9~------------------|
|---6---------6-------|--------9~------------------|
|-0---------0---------|------------------------2-3-|
|---------------------|-7-7-7----------------------|
 que sea un guerrero de sangre para que nadie te haga daño

Outro
|------0----0----0----|---------0---------0--|
|------0----0----0----|-------0---------0----|
|*-----6----6----6--4-|-----6---------9-----*|
|*-----6----6----6--4-|---6---------9-------*|
|-4-4-4--4-4--4-4---2-|-0--------------------|
|---------------------|-----------7----------|
                             para que nadie te haga daño

Intro Alternativa:
La intro tambien se escucha bien asi:
|----------------------------------------------|
|-------------------2(14)----------------------|
|*-------------1(13)-----1(13)-----1(13)-------|
|*--------4(16)---------------4(16)-----4(16)--|
|----2(14)-------------------------------------|
|--0-------------------------------------------|

|----------------------------|
|----------------------------|
|---------------------4(16)-*|
|---------2(14)--4(16)------*|
|----2(14)-------------------|
|--0-------------------------|

Notas:
1(13)        Armonico Artificial
7*           Armónico Natural
linea de x   Tap Guitar
par de *     Repetir
9~           Dejar sonar

Fuente original: LaCuerda

Comentarios del colaborador: ESTA ROLA ESTA PERRONA ESPERO LES GUSTE

Calificar esta versión:
Aviso: Este fichero es trabajo propio de su transcriptor y representa su interpretación personal de la canción. El material contenido en esta página es para exclusivo uso privado, por lo que se prohibe su reproducción o retransmisión, así como su uso para fines comerciales.
Más versiones de Ayer Me Dijo Un Ave, Caifanes
Ayer Me Dijo Un Ave
acordes
Ayer Me Dijo Un Ave (ver 2)
acordes
Ayer Me Dijo Un Ave
tablatura
Ayer Me Dijo Un Ave (ver 2)
tablatura
Ayer Me Dijo Un Ave (ver 3)
tablatura
Ayer Me Dijo Un Ave (ver 4)
tablatura
Ayer Me Dijo Un Ave
bajo
Ayer Me Dijo Un Ave
teclado
Ayer Me Dijo Un Ave
armonica
Descubre más canciones de Caifanes