Paranoid, Black Sabbath (tablatura) (ver 7)

Autor: -LINK- | 19751 visualizaciones



--------------------------------------------------------
--------------------------------------------------------
-----------------------7-9-----7-9----------------------
----9----9----9----7-9-----7-9-------------------------- x4
---7----7----7------------------------------------------
--------------------------------------------------------

--------------------------------------------------------
--------------------------------------------------------
--------------------------------------------------------
---9-9-9-9-9-9-9-9-9-9-9-9-9-9-9-9------7-7-7-7-7-7-7-7-
---7-7-7-7-7-7-7-7-7-7-7-7-7-7-7-7------5-5-5-5-5-5-5-5-
--------------------------------------------------------

-------------------------
-------------------------
-------------------------
---9---5---7---5--------- x2
---7---3---5-------------
-------------------------

------------------------------------------------------------
------------------------------------------------------------
------------------------------------------------------------
---9---------5---------7----9-9-9-9-9-9-9-9-9-9-9-9-9-9-9-9- x2
---7---------3---------5----7-7-7-7-7-7-7-7-7-7-7-7-7-7-7-7-
------------------------------------------------------------

--------------------------------------------------------
--------------------------------------------------------
--------------------------------------------------------
---9-9-9-9-9-9-9-9-9-9-9-9-9-9-9-9------7-7-7-7-7-7-7-7-
---7-7-7-7-7-7-7-7-7-7-7-7-7-7-7-7------5-5-5-5-5-5-5-5-
--------------------------------------------------------

-------------------------
-------------------------
-------------------------
---9---5---7---5--------- x2
---7---3---5-------------
-------------------------

----------------------------
----------------------------
----------------------------
---9------------------7----- x2
---7------------------5-----
----------------------------

--------------------------------------------------------
--------------------------------------------------------
--------------------------------------------------------
---9-9-9-9-9-9-9-9-9-9-9-9-9-9-9-9------7-7-7-7-7-7-7-7-
---7-7-7-7-7-7-7-7-7-7-7-7-7-7-7-7------5-5-5-5-5-5-5-5-
--------------------------------------------------------

-------------------------
-------------------------
-------------------------
---9---5---7---5--------- x4
---7---3---5-------------
-------------------------





Calificar esta versión:
Aviso: Este fichero es trabajo propio de su transcriptor y representa su interpretación personal de la canción. El material contenido en esta página es para exclusivo uso privado, por lo que se prohibe su reproducción o retransmisión, así como su uso para fines comerciales.
Más versiones de Paranoid, Black Sabbath
Paranoid
acordes
Paranoid (ver 2)
acordes
Paranoid (ver 3)
acordes
Paranoid (ver 4)
acordes
Paranoid
tablatura
Paranoid (ver 2)
tablatura
Paranoid (ver 3)
tablatura
Paranoid (ver 4)
tablatura
Paranoid (ver 5)
tablatura
Paranoid (ver 6)
tablatura
Paranoid (ver 7)
tablatura
Paranoid
bajo
Descubre más canciones de Black Sabbath