Paranoid, Black Sabbath (tablatura) (ver 6)

Autor: ozzmosis13 | 31372 visualizaciones



Intro:

|------------------------------------|
|------------------------------------|
|---------------------7h9-------7h9--|  x4
|--7h9-7h9-7h9---7h9-------7h9-------|
|--7---7---7-------------------------|
|------------------------------------|

Versos:

|---------------------------------------|
|---------------------------------------|
|--------------------------------7------|
|-9-9-9-9-9-9-9-9---7-7-7-7-7-7--5-7--9-|
|-7-7-7-7-7-7-7-7---5-5-5-5-5-5----5--7-|
|---------------------------------------|
pm.............................|

|---------------------------------------|
|---------------------------------------|
|---------------------------------------|
|-9----5-----7----9---------------------|
|-7----3-----5----7---------------------|
|---------------------------------------|

Solo:

---------------------|------------------------|-------------------------| 
---------------------|------------------------|-------------------------| 
--9r--7---9~---------|------9--7--9p-7--------|-------------------------| 
---------------------|------------------9/7---|--5h-7--5h-7-------------| 
---------------------|------------------------|--------------5h-7--7----| 
---------------------|------------------------|-------------------------| 
                                                                            
---------------------|-------------------------|----------------------------| 
---------------------|-------------------------|--------8--10--10r---8--10r-| 
---------------------|--------------7h-9--9----|--7/-9----------------------| 
--5------------------|--5h-7--7/-9-------------|----------------------------| 
-----7------7--------|-------------------------|----------------------------| 
---------------------|-------------------------|----------------------------| 
                                                   
------------------------|----------------------12------| 
-----8-10----8----------|------------------12------15--| 
----------------9--9----|--7h-9--9--9/-14--------------| 
------------------------|------------------------------| 
------------------------|------------------------------| 
------------------------|------------------------------| 
                                                           
--------------------------|--15b---15b---15r-12--15p12-----| 
--15~-----15b-----15b-12--|----------------------------15--| 
--------------------------|--------------------------------| 
--------------------------|--------------------------------| 
--------------------------|--------------------------------| 
--------------------------|--------------------------------| 
                                                                         
--15p12-------------------12------------|------------------------------| 
--------15b-15p12-----12------15p12-----|------------------------------| 
------------------14b---------------14--|--14p12-----12--14r---12~-----| 
----------------------------------------|--------14--------------------| 
----------------------------------------|------------------------------| 
----------------------------------------|------------------------------| 
                                                                      
--------------------------------------|----------------------------------| 
--------------------------------------|----------------------------------| 
--14b---12h14p12----12----------------|----------------------------------| 
-----------------14-----14--14p12-----|--12------------------------------| 
----------------------------------14--|--------12--10--12p10-----12/-14--| 
--------------------------------------|----------------------12----------| 
 
------------------------------|------------------------|------------------| 
------------------------------|------------------------|------------------| 
----------------12------------|------------------------|------------------| 
--12----12h-14------14--12----|--14--12------14--------|------------------| 
------------------------------|------------------------|------------------| 
------------------------------|------------------------|------------------|





Comentarios del colaborador: aqui les dejo paranoid de black sabbath,la cancion la escribi yo ,menos el solo ,el solo fue copiado de www.losacordes.com,...copie el solo para que la tablatura estuviera completa,espero que la disfruten.

Calificar esta versión:
Aviso: Este fichero es trabajo propio de su transcriptor y representa su interpretación personal de la canción. El material contenido en esta página es para exclusivo uso privado, por lo que se prohibe su reproducción o retransmisión, así como su uso para fines comerciales.
Más versiones de Paranoid, Black Sabbath
Paranoid
acordes
Paranoid (ver 2)
acordes
Paranoid (ver 3)
acordes
Paranoid (ver 4)
acordes
Paranoid
tablatura
Paranoid (ver 2)
tablatura
Paranoid (ver 3)
tablatura
Paranoid (ver 4)
tablatura
Paranoid (ver 5)
tablatura
Paranoid (ver 6)
tablatura
Paranoid (ver 7)
tablatura
Paranoid
bajo
Descubre más canciones de Black Sabbath