Paranoid, Black Sabbath (acordes) (ver 3)

Autor: jin lee | 37919 visualizaciones

c5d5e5g5


 Intro
            E5
e--------------------------------
b--------------------------------
g----------------7h9--------7h9-- x4
d-9--9--9--7h9--------7h9--------
a-7--7--7------------------------
e--------------------------------

Ahora viene la estrofa con palm mute menos los cortes y la segunda parte
            E5
e-------------------------------------
b-------------------------------------
g-------------------------------------
d--9--9--9--9--9--9--9--9--9--9--9--9-
a--7--7--7--7--7--7--7--7--7--7--7--7-
e-------------------------------------

          D5
e--------------------------------------
b--------------------------------------
g--------------------------------------
d--7--7--7--7--7--7--------------------          x2
a--5--5--5--5--5--5--------------------
e--------------------------------------

  G5   D5   E5  G5
e--------------------------------------
b--------------------------------------
g--7-----------------------------------
d--5---7---9---12----------------------
a------5---7---10----------------------
e--------------------------------------

sigue con la otra parte
  E5        C5   D5  E5
e------------------------------------------
b------------------------------------------
g------------------------------------------
d--9---------5----7---9-9-9-9-9-9-9-9-9-9-9
a--7---------3----5---7-7-7-7-7-7-7-7-7-7-7
e------------------------------------------

 E5
e-------------------------------------
b-------------------------------------
g-------------------------------------
d--9--9--9--9--9--9--9--9--9--9--9--9-
a--7--7--7--7--7--7--7--7--7--7--7--7-
e-------------------------------------

          D5
e--------------------------------------
b--------------------------------------
g--------------------------------------
d--7--7--7--7--7--7--------------------          x2
a--5--5--5--5--5--5--------------------
e--------------------------------------

  G5   D5   E5  G5
e--------------------------------------
b--------------------------------------
g--7-----------------------------------
d--5---7---9---12----------------------
a------5---7---10-----------------------
e--------------------------------------

    E5                D5
e--------------------------------------
b--------------------------------------
g-------------------------------------- 
d---9------------------7---------------          x2
a---7------------------5---------------
e--------------------------------------


 E5
e-------------------------------------
b-------------------------------------
g-------------------------------------
d--9--9--9--9--9--9--9--9--9--9--9--9-
a--7--7--7--7--7--7--7--7--7--7--7--7-
e-------------------------------------

          D5
e--------------------------------------
b--------------------------------------
g--------------------------------------
d--7--7--7--7--7--7--------------------          x4
a--5--5--5--5--5--5--------------------
e--------------------------------------

  G5   D5   E5  G5
e--------------------------------------
b--------------------------------------
g--7-----------------------------------
d--5---7---9---12----------------------
a------5---7---10----------------------
e--------------------------------------


ahora el solo que es mas o menos asi aunque esta incompleto

e-----------------------------------------
b--7v-------------------------------------
g-----7h9---------------------------------
d---------7-9-7-9-7-9-5-5h7---------------
a---------------------------5h7-----------
e-----------------------------------------


e-----------------------------------------------
b------------------------------------------------
g---------------------------------12-14v-14v-14v-
d--------------12-14v-------12-14----------------
a--------12-14--------12-14----------------------
e--12-15-----------------------------------------

hasta hay me quede pero como pueden ver el solo es la primera pentatonica[yo pense que no servian] asi que pueden sacarlo 





Calificar esta versión:
Aviso: Este fichero es trabajo propio de su transcriptor y representa su interpretación personal de la canción. El material contenido en esta página es para exclusivo uso privado, por lo que se prohibe su reproducción o retransmisión, así como su uso para fines comerciales.
Más versiones de Paranoid, Black Sabbath
Paranoid
acordes
Paranoid (ver 2)
acordes
Paranoid (ver 3)
acordes
Paranoid (ver 4)
acordes
Paranoid
tablatura
Paranoid (ver 2)
tablatura
Paranoid (ver 3)
tablatura
Paranoid (ver 4)
tablatura
Paranoid (ver 5)
tablatura
Paranoid (ver 6)
tablatura
Paranoid (ver 7)
tablatura
Paranoid
bajo
Descubre más canciones de Black Sabbath