Paranoid, Black Sabbath (tablatura) (ver 5)

Autor: zealot | 23126 visualizaciones



(INTRO)
1----------------------           eso se repite 4 veces.
2----------------------
3-------------7h9----7-
4---------7h9----7h9--9
5---9-9-9--------------
6---7-7-7--------------
(PARTE 2)
1-----------------------------------   aqui se tapa con las palmas
2----------------------------------- d las manos (8 y 4 tiempos)
3-----------------------------------
4---9-9-9-9-9-9-9-9-9-9--7-7-7-7-7-7
5---7-7-7-7-7-7-7-7-7-7--5-5-5-5-5-5
6-----------------------------------
(PARTE 3)
1------------------------               y se repite con lo d arriva
2------------------------
3------------------------                 
4---12--7--9--12---------
5---10--5--7--10---------
6------------------------ aqui se tapa
(PARTE 4)         /-----------------------/
1-------------------------------------------------------
2-------------------------------------------------------
3-------------------------------------------------------
4---9---5--7--9---9-9-9-9-9-9-9-9-9-9-9-9----9---5--7--9
5---7---3--5--7---7-7-7-7-7-7-7-7-7-7-7-7----7---3--5--7
6-------------------------------------------------------
(PARTE 5)
1-----------------------------------  ESTO SOLO SE TOCA UNA VEZ
2----------------------------------- luego se repite desde la 
3----------------------------------- parte 2 y 3 y despues la
4---9---------7----------9----------7 parte 4 pero casi al final
5---7---------5----------7----------5 escuchenla para q vean 
6------------------------------------  cuantas veces se repite cada cosa por q la canion es asi se repite. salu2 :D





Calificar esta versión:
Aviso: Este fichero es trabajo propio de su transcriptor y representa su interpretación personal de la canción. El material contenido en esta página es para exclusivo uso privado, por lo que se prohibe su reproducción o retransmisión, así como su uso para fines comerciales.
Más versiones de Paranoid, Black Sabbath
Paranoid
acordes
Paranoid (ver 2)
acordes
Paranoid (ver 3)
acordes
Paranoid (ver 4)
acordes
Paranoid
tablatura
Paranoid (ver 2)
tablatura
Paranoid (ver 3)
tablatura
Paranoid (ver 4)
tablatura
Paranoid (ver 5)
tablatura
Paranoid (ver 6)
tablatura
Paranoid (ver 7)
tablatura
Paranoid
bajo
Descubre más canciones de Black Sabbath