Calla Y Espera, Bbs Paranoicos (tablatura) (ver 3)

Autor: Anónimo | 40568 visualizaciones



Asi creo que es la cancion, si quieren mas mandenme mails 


INTRO
 Todo esto con palm muting, las dos guitarras hacen lo mismo
|--------|--------|--------|--------|--------|--------|--------|--------|
|--------|--------|--------|--------|--------|--------|--------|--------|
|--------|--------|--------|--------|--------|--------|--------|--------|
|--------|--------|77777777|77777777|--------|--------|--------|--------|
|99999999|99999999|55555555|55555555|22222222|22222222|55555555|44444444|
|77777777|77777777|--------|--------|00000000|00000000|33333333|22222222|

|--------|--------|--------|--------|--------|--------|--------|--------|
|--------|--------|--------|--------|--------|--------|--------|--------|
|--------|--------|--------|--------|--------|--------|--------|--------|
|--------|--------|77777777|77777777|--------|--------|--------|--------|
|99999999|99999999|55555555|55555555|22222222|22222222|44444444|44444444|
|77777777|77777777|--------|--------|00000000|00000000|22222222|22222222|

 
VERSO

*primera guitarra
*|--------|--------|--------|--------|--------|--------|--------|--------|
*|--------|--------|--------|--------|--------|--------|--------|--------|
*|--------|--------|--------|--------|--------|--------|--------|--------|
*|--------|11--12--|--------|--------|77777777|77777777|--------|--------|
*|9-------|--------|5-------|5---5---|55555555|55555555|77777777|77777777|
*|7-------|--------|3-------|3---3---|--------|--------|55555555|55555555|
*segunta guitarra
*|--------|--------|--------|--------|--------|--------|--------|--------|
*|--------|--------|--------|--------|--------|--------|--------|--------|
*|--------|6---7---|--------|6---7---|--------|--------|--------|--------|
*|--------|6---7---|--------|6---7---|77777777|77777777|--------|--------|
*|9-------|--------|5-------|--------|55555555|55555555|77777777|77777777|
*|7-------|--------|3-------|--------|--------|--------|55555555|55555555|


CORO

*primera guitarra
*|--------|--------|--------|--------|--------|--------|--------|--------|
*|--------|--------|--------|--------|--------|--------|--------|--------|
*|77777777|66666666|77777777|66666666|44446667|66666666|44446667|66666666|
*|77777777|77777777|77777777|77777777|44444444|44444444|44444444|44444444|
*|55555555|44444444|55555555|44444444|22222222|22222222|22222222|22222222|
*|--------|--------|--------|--------|--------|--------|--------|--------|
*segunta guitarra
*|--------|--------|--------|--------|--------|--------|--------|--------|
*|--------|--------|--------|--------|--------|--------|--------|--------|
*|--------|--------|--------|--------|--------|--------|--------|--------|
*|77777777|77777777|77777777|77777777|44444444|44444444|44444444|44444444|
*|55555555|44444444|55555555|44444444|22222222|22222222|22222222|22222222|
*|--------|--------|--------|--------|--------|--------|--------|--------|


*primera guitarra
*|--------|--------|--------|--------|--------|--------|--------|--------|
*|--------|--------|--------|--------|--------|--------|--------|--------|
*|77777777|66666666|77777777|66666666|44446667|77666666|--------|--------|
*|77777777|77777777|77777777|77777777|44444444|44444444|55555555|55555555|
*|55555555|44444444|55555555|44444444|22222222|22222222|55555555|55555555|
*|--------|--------|--------|--------|--------|--------|33333333|33333333|
*segunta guitarra
*|--------|--------|--------|--------|--------|--------|--------|--------|
*|--------|--------|--------|--------|--------|--------|--------|--------|
*|--------|--------|--------|--------|--------|--------|--------|--------|
*|77777777|77777777|77777777|77777777|44444444|44444444|--------|--------|
*|55555555|44444444|55555555|44444444|22222222|22222222|55555555|55555555|
*|--------|--------|--------|--------|--------|--------|33333333|33333333|


*primera guitarra
*|--------|--------|
*|--------|--------|
*|--------|--------|
*|77777777|77777777|
*|77777777|77777777|
*|55555555|55555555|
*segunta guitarra
*|--------|--------|
*|--------|--------|
*|--------|--------|
*|--------|--------|
*|77777777|77777777|
*|55555555|55555555|



LETRA
-----
CALLA....No es miedo en realidad
ESPERA... el tiempo puede más
No es problema talvéz la solución
No importa, No hay explicación.

No! No! No!
Calla y espera
Seguir es renunciar, es dar un paso atrás
Muchas fronteras, me encierran
Un horizonte más que no podré alcanzar
¿De que sirve una verdad si no deja actuar?
Vivir mirando todo a contraluz.

Sin ver más allá
Sin libertad, sin libertad.

Lanzas, con miedo en tu mirar
Palabras que no perduraran
Ser como el viento, escapar sin control
A un tiempo que algo nos ocultó.

No! No! No!
Calla y espera
No ver cambiar el sol, resignarse al temor
Tus pies en tierra, se aferran
No es solo un sueño más, no llegar al final.

¿De que sirve una verdad si no deja actuar?
Vivir mirando todo a contraluz.

Sin ver más allá
Sin libertad, sin dar un paso más.

Fuente original: LaCuerda
Colaborador original: Sebastian Paredes [sparedes@w3.cl]





Calificar esta versión:
Aviso: Este fichero es trabajo propio de su transcriptor y representa su interpretación personal de la canción. El material contenido en esta página es para exclusivo uso privado, por lo que se prohibe su reproducción o retransmisión, así como su uso para fines comerciales.
Más versiones de Calla Y Espera, Bbs Paranoicos
Calla Y Espera
acordes
Calla Y Espera
tablatura
Calla Y Espera (ver 2)
tablatura
Calla Y Espera (ver 3)
tablatura
Calla Y Espera
bajo
Descubre más canciones de Bbs Paranoicos