Calla Y Espera, Bbs Paranoicos (bajo)

Autor: Anónimo | 23296 visualizaciones



este es el bajo de la cancion calla y espera de los bbs paranoicos

verso 1
-----------------------------
----------------------------- (rosando la cuerda con la mano o con el 
----------------------------- antebrazo)
77777-55555-00000-33333-22222
coro 1
--------------------------
--------------------------(normal)
---6-7----6-7-55555-------
777----777---------55555--
coro 2
------------------------------------
------------------------------------(normal)
55555-44444-55555-44444-222222222222
------------------------------------
(solo guitarra)
----------------------------------
----------------------------------
-----5-5-5-7-7-7-10-10-10-11-11-11
7-7-7-----------------------------

-------------------------
-------------------------
-----5-5-5-7-7-7---------
7-7-7-----------3-3-3-2-2

-----------------------
-----------------------
-----------5-5-5-------
7-7-7-3-3-3------5-5-5-

------------------------------
------------------------------
-----------5-5-5--------------
7-7-7-3-3-3-----5-5-5-6-6-6-7-

eso es todo aora va el orden

verso 1
coro 1
coro 2
verso 1
coro 1
coro 2
punteo guitarra
coro 1

eso es todo gracias a to2 mis admiradores 


kristian

Fuente original: LaCuerda
Colaborador original: iNaDaPTaDoX---kristian [kristian_punkore69@hotmail.com]





Calificar esta versión:
Aviso: Este fichero es trabajo propio de su transcriptor y representa su interpretación personal de la canción. El material contenido en esta página es para exclusivo uso privado, por lo que se prohibe su reproducción o retransmisión, así como su uso para fines comerciales.
Más versiones de Calla Y Espera, Bbs Paranoicos
Calla Y Espera
acordes
Calla Y Espera
tablatura
Calla Y Espera (ver 2)
tablatura
Calla Y Espera (ver 3)
tablatura
Calla Y Espera
bajo
Descubre más canciones de Bbs Paranoicos