Calla Y Espera, Bbs Paranoicos (tablatura)

Autor: Anónimo | 23703 visualizaciones



BBs paranoicos           esta version tiene el punteo y esta kompleta
kalla y espera
 
                      
intro:


|--------------------------------|
|--------------------------------|
|--------------------------------|(esto se hace con palm muting)
|--------------------------------|
|9*******7*******9*******12**9***|
|9*******5*******7*******10**11**|
|7*******------------------------|

kalla.... no es miedo... espera.... el tiempo....


|--------|--------|--------|--------|
|--------|--------|--------|--------|
|--------|--------|--------|--------|
|9*******|7*******|9*******|--------|(esto se hace con palm muting)
|9*******|5*******|7*******|5**4****|
|7*******|--------|--------|3**2****|

no es el problema.........
-------------------------|--------|
|------------------------|--------|
|--6-7-----6-7---7-------|--------|
|9-6-7---5-6-7---7-7-----|--------|   x2  
|9-------5-------5-7-----|--------|
|7-------3---------5-----|--------|

no no no kalla.............

|----------------|---------------------|          
|----------------|---------------------|
|7-7-----7-7-----|-7-7----7-7----------|
|7-7--7--7-7-7---|-7-7--7-7-7-7-9-5-7--|   
|5-5--4--5-5-4--9|-5-5--4-5-5-4-9-5-7--|
|---------------7|--------------7-3-5--|
  

de ke sirve una verdad.................



|--------|--------|--------|--------|
|--------|--------|--------|--------|
|--------|--------|--------|--------| 2x (esto se hace con palm muting)
|--------|--------|--------|--------|
|9*******|7*******|9*******|12**9***|
|9*******|5*******|7*******|10**11**|
|7*******|--------|--------|--------|

lansas kon miedo en tu mirar.............




|------------------------|--------|
|--6-7-----6-7---7-------|--------|
|9-6-7---5-6-7---7-7-----|--------|   x2  
|9-------5-------5-7-----|--------|
|7-------3---------5-----|--------|

no no kalla .............



|----------------|---------------------|          
|----------------|---------------------|
|7-7-----7-7-----|-7-7----7-7----------|
|7-7--7--7-7-7---|-7-7--7-7-7-7-9-5-7-8|   
|5-5--4--5-5-4--9|-5-5--4-5-5-4-9-5-7-8|
|---------------7|--------------7-3-5-4|
  2x     1x

de que sirve una verdad si no deja actuar................
.....sin libertad sin dar un paso mas




|---------------------------------------------------10---------------|
|-------------12-----------------------------12--14----12------------|
|-12-11----14----12-11/9------------------11--------------11-9-7-7---|
|-12----12----------------9/14-16-12-11-9----------------------------|   
|--------------------------------------------------------------------|
|--------------------------------------------------------------------|



|----------------------------14-15-14--------17~-------17-15-14--------------|
|---17~-15--17~-17~-15--17------------15-15------15-14----------15-----------|
|----------------------------------------------------------------------------|
|----------------------------------------------------------------------------|   
|----------------------------------------------------------------------------|
|----------------------------------------------------------------------------|

........este es todo el punteo.

...mientras la otra guitarra hace esto..
|--------|--------|--------|--------|
|--------|--------|--------|--------|
|--------|--------|--------|--------|
|--------|--------|--------|--------|
|9-------|7-------|9-------|12--9---|
|9-------|5-------|7-------|10--11--|
|7-------|--------|--------|--------|


|--------|--------|--------|--------|
|--------|--------|--------|--------|
|--------|--------|--------|--------|
|9-------|7-------|9-------|--------|
|9-------|5-------|7-------|5--4----|
|7-------|--------|--------|3--2----|

|--------|--------|--------|--------|
|--------|--------|--------|--------|
|--------|--------|--------|--------|
|9-------|5-------|7-------|--------|
|9-------|5-------|5-------|7-------|
|7-------|3-------|--------|5-------|


|--------|--------|--------|--------|
|--------|--------|--------|--------|
|--------|--------|--------|--------|
|9-------|5-------|7-------|--------|
|9-------|5-------|5-------|7778889-|
|7-------|3-------|--------|5556667-|

       FIN

Fuente original: LaCuerda
Colaborador original: alex oyarzun [enagenado@123mail.cl]





Calificar esta versión:
Aviso: Este fichero es trabajo propio de su transcriptor y representa su interpretación personal de la canción. El material contenido en esta página es para exclusivo uso privado, por lo que se prohibe su reproducción o retransmisión, así como su uso para fines comerciales.
Más versiones de Calla Y Espera, Bbs Paranoicos
Calla Y Espera
acordes
Calla Y Espera
tablatura
Calla Y Espera (ver 2)
tablatura
Calla Y Espera (ver 3)
tablatura
Calla Y Espera
bajo
Descubre más canciones de Bbs Paranoicos