Calla Y Espera, Bbs Paranoicos (tablatura) (ver 2)

Autor: Anónimo | 21760 visualizaciones



BBS Paranoicos - Calla y espera

Aki korreji to2 los errores de las otras versiones!!!
                      
intro:

Palm Mutting!!!
|--------------------------------|
|--------------------------------|
|--------------------------------|
|--------------------------------|
|8*******6*******8*******11**10**|
|8*******4*******6*******9***8***|
|6*******------------------------|
Calla.....        Espera......


Segunda parte del intro:
|--------|--------|--------|--------|
|--------|--------|--------|--------|
|--------|--------|--------|--------|
|8*******|6*******|8*******|--------|
|8*******|4*******|6*******|4**3****|
|6*******|--------|--------|2**1****|
Es el Problema....


|------------------------|
|------------------------|
|--5-6-----5-6---6-------|
|8-5-6---4-5-6---6-6-----|   x2  
|8-------4-------4-6-----|
|6-------2---------4-----|
No, No No Calla... 


|----------------|----------------------------|          
|----------------|----------------------------|
|6---5---6---5---|-6---5---6---5--------------|
|6---6---6---6---|-6---6---6---6---8---4---6--|   
|4---3---4---3--8|-4---3---4---3---8---4---6--|
|---------------6|-----------------6---2---4--|
De que sirve...... 




Palm Mutting!!!
|--------------------------------|
|--------------------------------|
|--------------------------------|
|--------------------------------|
|8*******6*******8*******11**10**|
|8*******4*******6*******9***8***|
|6*******------------------------|
Lansas...


|--------|--------|--------|--------|
|--------|--------|--------|--------|
|--------|--------|--------|--------|
|8*******|6*******|8*******|--------|
|8*******|4*******|6*******|4**3****|
|6*******|--------|--------|2**1****|
Ser como el viento....


|------------------------|--------|
|------------------------|--------|
|--5-6-----5-6---6-------|--------|
|8-5-6---4-5-6---6-6-----|--------|   x2  
|8-------4-------4-6-----|--------|
|6-------2---------4-----|--------|
No, No No Calla... 


|----------------|-------------------------------|          
|----------------|-------------------------------|
|6---5---6---5---|-6---5---6---5-----------------|
|6---6---6---6---|-6---6---6---6---8---4---6---7-|   
|4---3---4---3--8|-4---3---4---3---8---4---6---7-|
|---------------6|-----------------6---2---4---5-|
De que sirve...... 



Solo:                                   
|---------------------------------------------------9----------------|
|-------------11-----------------------------11--13----11------------|
|-11-10----13----11-10/8------------------10--------------10-8-6-6---|
|-------11----------------8/13-15-11-10-8----------------------------|   
|--------------------------------------------------------------------|
|--------------------------------------------------------------------|

mientras que se toka el solo la otra guitarra hace esto...
|--------|--------|--------|--------|
|--------|--------|--------|--------|
|--------|--------|--------|--------|
|8-------|6-------|8-------|11--10--|
|8-------|4-------|6-------|9---8---|
|6-------|--------|--------|--------|


|----------------------------13-14-13--------16~-------16-14-13--------------|
|---16~-14--16~-16~-14--16------------14-14------14-13----------14-----------|
|----------------------------------------------------------------------------|
|----------------------------------------------------------------------------|   
|----------------------------------------------------------------------------|
|----------------------------------------------------------------------------|

y Esto...    
|--------|--------|--------|--------|
|--------|--------|--------|--------|
|--------|--------|--------|--------|
|--------|--------|--------|--------|
|8-------|6-------|8-------|-4--3---|
|8-------|4-------|6-------|-2--1---|
|6-------|--------|--------|--------|

Despues las 2 Guitarras tokan
|--------|--------|--------|--------|
|--------|--------|--------|--------|
|--------|--------|--------|--------|
|8-------|4-------|6-------|--------|
|8-------|4-------|4-------|6-------|
|6-------|2-------|--------|4-------|


|--------|--------|--------|--------|
|--------|--------|--------|--------|
|--------|--------|--------|--------|
|8-------|4-------|6-------|--------|
|8-------|4-------|4-------|6667778-|
|6-------|2-------|--------|4445556-|

Y eso es toda la Cancion...

Dudas a Nico_harcorepunk77@hotmail.com

Fuente original: LaCuerda
Colaborador original: Nicø Nuñez [nico_harcorepunk77@hotmail.com]





Calificar esta versión:
Aviso: Este fichero es trabajo propio de su transcriptor y representa su interpretación personal de la canción. El material contenido en esta página es para exclusivo uso privado, por lo que se prohibe su reproducción o retransmisión, así como su uso para fines comerciales.
Más versiones de Calla Y Espera, Bbs Paranoicos
Calla Y Espera
acordes
Calla Y Espera
tablatura
Calla Y Espera (ver 2)
tablatura
Calla Y Espera (ver 3)
tablatura
Calla Y Espera
bajo
Descubre más canciones de Bbs Paranoicos