Almafuerte, Almafuerte (tablatura) (ver 4)

Autor: pato666 | 44916 visualizaciones



      intro 

1-------------------------------------------------
2-------------------------------------------------
3---9----9----------------------------------------  x4
4----9-8--9-7---7-5-7-5-7-5-7-5-------------------
5-------------7-----------------------------------   
6-------------------------------------------------

4--9-------------------
5--7-------------------
de muy pibe me encontre
5-7--------9------------
6-5--------7------------
con tu estatua una tarde
4-9--9-9--9-----99
5-7--7-7--7-----77 en esta parte hace tipo un rajeito en los (-)
luego de eso comence a leer 
5-7--------9-------------
6-5--------7-------------  aca la deja sonando a las notas
tu nombre en muchas partes

aca ya no se lo q hace hace tipo una escala q todavia no puedo sacar

la cancion sigue toda asi menos en la estrofa q dice ´esta cancion qiere tu nombre llaverse´
y antes del punteo hace

4-----------2-5-7-9--
5---9-7-5-2-0-3-5-7--  creo que por 2 veces
6---7-5-3-0----------







Comentarios del colaborador: bueno espero que les alla gustado ya que esta es la vercion ORIGINAL

Calificar esta versión:
Aviso: Este fichero es trabajo propio de su transcriptor y representa su interpretación personal de la canción. El material contenido en esta página es para exclusivo uso privado, por lo que se prohibe su reproducción o retransmisión, así como su uso para fines comerciales.
Más versiones de Almafuerte, Almafuerte
Almafuerte
acordes
Almafuerte
tablatura
Almafuerte (ver 2)
tablatura
Almafuerte (ver 3)
tablatura
Almafuerte (ver 4)
tablatura
Almafuerte
bajo
Descubre más canciones de Almafuerte