Almafuerte, Almafuerte (tablatura)

Autor: Anónimo | 27091 visualizaciones



Hice esta versión porq las otras q había daban piedad

Intro:
   Mi                 Sol Fa#
|------------------------------|
|------------------------------|
|--9----------9----------------| x4
|----0-9-8--0---9-8-7-5h7-4h7--|
|---------------------5h7-4h7--|
|------------------------------|

  Mi                        Do         La
|---------------------------------------------------------
|---------------------------------------------------------
|-9-------------------------5---------------------------9-
|-9-------------------------5----------7~---------------9-
|-7-------------------------3-----------------------7-7---
|-0-------------------------------------------------------
PM                                                  ...
    De muy pibe me encontré   con tu estatua una tarde
  Mi                             Do               La
---------------------------------------------------------|
---------------------------------------------------------|
------9--------7-/9-----9--9-/7--5----------------2------|
------9--------7-/9-----9--9-/7--5----------------2------|
--7-7------7-7------7-7----------3----------------0------|
---------------------------------------------------------|
PM...      ...      ...
  luego de eso comencé a leer tu nombre en muchas partes

|---------------------------------------|
|---------------------------------------|
|------------no soy mago----------------|
|---------------------------------------|
|---------------------------------------|
|---------------------------------------|


Colectivos, comercios, salones,
bibliotecas populares,
calles, barrios, pueblos, bares,
y sentí en mí de vos saber


|---------------------------------------|
|---------------------------------------|
|----------7-11-7-9-----------7-11-7-5--|
|-7-5-4-2--7-11-7-9--7-5-4-2--7-11-7-5--|
|-7-5-4-2--5--9-5-7--7-5-4-2--5--9-5-3--|
|-5-3-2-0------------5-3-2-0------------|


En San Justo escuché
a mis abuelos nombrarte
Tuve suerte el día que
a tus escritos llegué

|---------------------------------------|
|---------------------------------------|
|------------no soy mago----------------|
|---------------------------------------|
|---------------------------------------|
|---------------------------------------|

Masticaste soledad
por no callar verdades,
y contra la ignorancia guerreaste
sin títulos que te respalden

|---------------------------------------|
|---------------------------------------|
|----------7-11-7-9-----------7-11-7-5--|
|-7-5-4-2--7-11-7-9--7-5-4-2--7-11-7-5--|
|-7-5-4-2--5--9-5-7--7-5-4-2--5--9-5-3--|
|-5-3-2-0------------5-3-2-0------------|


Mi      Sol         Re           La
Esta canción quiere tu nombre llevarse
Mi         Sol       Re                      La
como se lleva mi voz   para que guarde quien siente
Mi         Sol          Re        La
Fue por querer y por si alguno no sabe
         Do     Re         Mi
|--------------------------------------------|
|--------------------------------------------|
|--------5------7----------------------------|
|--------5------7----------------------------|
|--0--2--3------5----------7777777777777777--|
|--------------------------0000000000000000--|
PM                         ................
que hice mío tu nombre Almafuerte, si, si, si, eh!

|------------------------------|    |----------------------------------|
|------------------------------|    |----------------------------------|
|--9----------9----------------| x2 |--9------------9------------------| x2
|----0-9-8--0---9-8-7-5h7-4h7--|    |----0-9-<8>--0---9-8-<7>-5h7-4h7--|
|---------------------5h7-4h7--|    |-------------------------5h7-4h7--|
|------------------------------|    |----------------------------------|

   La               Sol              Fa                 Do Re    Re# Re
|----------------------------------------------------------------------
|----------------------------------------------------------------------
|--------------------------------------------------------5-7------8-7--
|--7----------------5----------------3-------------------5-7------8-7--
|--7------3h5-/7----5------2h3-/5----3------0h2-/3---000-3-5--000-6-5--
|--5--5h7-----------3--3h5-----------1--1h3----------------------------

  La                        Sol               Fa
--------------------------------------------------------------------
--------------------------------------------------------------------
---------5h7-/9--9-9-7----/9-7-----4h5-/7--7-7-5-4-/7-5-----2h4-/5--
-----7h9---------------10------5h7----------------------3h5---------
--------------------------------------------------------------------
--------------------------------------------------------------------

  Do    La    Do  Re     Do Re    Re# Re
----------------------------------------|
----------------------------------------|
--5-3-2-2-----5---7-------5-7------8-7--|
----------6---5---7-------5-7------8-7--|
--------------3---5---000-3-5--000-6-5--|
----------------------------------------|

Solo

|---------------------------------------|
|---------------------------------------|
|----------7-11-7-9-----------7-11-7-5--|
|-7-5-4-2--7-11-7-9--7-5-4-2--7-11-7-5--|
|-7-5-4-2--5--9-5-7--7-5-4-2--5--9-5-3--|
|-5-3-2-0------------5-3-2-0------------|

Esta canción quiere tu nombre llevarse
como se lleva mi voz para que guarde quien siente
Fue por querer y por si alguno no sabe
que hice mío tu nombre Almafuerte, eh!

|------------------------------|    |----------------------------------|    |-----|
|------------------------------|    |----------------------------------|    |-----|
|--9----------9----------------| x2 |--9------------9------------------| x2 |--9--|
|----0-9-8--0---9-8-7-5h7-4h7--|    |----0-9-<8>--0---9-8-<7>-5h7-4h7--|    |--9--|
|---------------------5h7-4h7--|    |-------------------------5h7-4h7--|    |--7--|
|------------------------------|    |----------------------------------|    |--0--|

Fuente original: LaCuerda
Colaborador original: Juan Pablo Pairola [juampipairola77@hotmail.com]





Calificar esta versión:
Aviso: Este fichero es trabajo propio de su transcriptor y representa su interpretación personal de la canción. El material contenido en esta página es para exclusivo uso privado, por lo que se prohibe su reproducción o retransmisión, así como su uso para fines comerciales.
Más versiones de Almafuerte, Almafuerte
Almafuerte
acordes
Almafuerte
tablatura
Almafuerte (ver 2)
tablatura
Almafuerte (ver 3)
tablatura
Almafuerte (ver 4)
tablatura
Almafuerte
bajo
Descubre más canciones de Almafuerte