Almafuerte, Almafuerte (bajo)

Autor: Anónimo | 22903 visualizaciones



INTRO:
DESPUES DE LA GUITARRA
G---------------------------------------------------------
D-2-2-2-2-2-----2-2-2-2-2-----2-2-2-2-2-----2-2-2-2-2-----
A---------------------------------------------------------
E-----------3-2-----------3-2-----------3-2-----------3-2-

(DURANTE LAS ESTROFAS)
G--------------------------------------
D--------------------------------------
A--7-7-7-7-7-7-7-7-7-7-----------------
E---------------------8-8-8-8-8-5-6-7--

G--------------------------------------
D--------------------------------------
A--7-7-7-7-7-7-7-7-7-7-----------------
E---------------------8-8-8-8-8-5-6-7--
(DURANTE EL SOLO DE GUITARRA)
G----------------------------------
D----------------------------------
A--7-7-7-7---------7-7-7-7---------
E----------6-6-6-6---------6-6-6-6-

(CORTE)
G------------------------------------------------
D------------------------------------------------
A-----------5--10--5--12-------------5--10--2--3-
E--5--3--2----------------5--3--2--0-------------

ESTRIBILLO

G-----------------------------------------------------------
D-----------------------------------------------------------
A----------5-5--------------5-5--------------5-5-----3-3-5-5-----
E--0-0-3-3-----5-5--0-0-3-3-----5-5--0-0-3-3-----5-5--------

EN EL PUNTEO DE GUITARRA (ACOMPAÑA)
(8 VECES)
G--------------------
D-2-2-2-0------------
A---------3-2-2-2-2--
E--------------------

Fuente original: LaCuerda
Colaborador original: omar [omi2240@hotmail.com]





Calificar esta versión:
Aviso: Este fichero es trabajo propio de su transcriptor y representa su interpretación personal de la canción. El material contenido en esta página es para exclusivo uso privado, por lo que se prohibe su reproducción o retransmisión, así como su uso para fines comerciales.
Más versiones de Almafuerte, Almafuerte
Almafuerte
acordes
Almafuerte
tablatura
Almafuerte (ver 2)
tablatura
Almafuerte (ver 3)
tablatura
Almafuerte (ver 4)
tablatura
Almafuerte
bajo
Descubre más canciones de Almafuerte