Almafuerte, Almafuerte (tablatura) (ver 3)

Autor: Anónimo | 39297 visualizaciones



Intro: 
e----------------------------------------------
b----------------------------------------------
G---9------------------------------------------
D-----(0)-9-8-(0)-(0)-9-7-7-------------------- x4
A---------------------------10-(0)-9-----------
E----------------------------------------------

e5
De muy pibe me encontré,
C5        A5
con tu estatua una tarde.
Luego de eso comencé a leer
tu nombre en muchas partes.

Riff:
e----------------------------------------------
b----------------------------------------------
G-------9-10-9-7-------------------------------
D-----7----------9-7-7---9-7-9-7--------------- x2
A---7------------------7-----------------------
E----------------------------------------------

e5
Colectivos, comercios, salones,
C5           A5
Bibliotecas Populares.
Calles, barrios, pueblos, bares,
Y sentí en mí de vos saber.

(A5-G5-F#5-E5) (D5-F#5-D5-e5)
(A5-G5-F#5-E5) (D5-F#5-D5-C5)

e5
En San Justo escuché,
C5       A5
A mis abuelos nombrarte.
Tuve suerte el día que
a tus escritos llegué.

Riff x2

e5
Masticaste soledad,
C5         A5
Por no callar verdades.
Y contra la ignorancia guerreaste,
sin títulos que te respalden.

(A5-G5-F#5-E5) (D5-F#5-D5-e5)
(A5-G5-F#5-E5) (D5-F#5-D5-C5)

E5        G5         D5           A5 
Esta cancion quiere tu nombre llevarse.
Como se lleva mi voz, para que guarde quien siente.

E5          G5           D5         A5
Fue por querer, y por si alguno no sabe,
          C5     D5          e5
que hice mio tu nombre Almafuerte.

Intro x4

(A5-G5-F5)
(A5-C5/A5-D5/A5-D#5/A5-D5)
(A5-G5-F5)
(A5-C5/A5-D5/A5-D#5/A5-D5)

Solo

(A5-G5-F#5-E5) (D5-F#5-D5-e5)
(A5-G5-F#5-E5) (D5-F#5-D5-C5)

E5        G5         D5           A5 
Esta cancion quiere tu nombre llevarse.
Como se lleva mi voz, para que guarde quien siente.

E5          G5           D5         A5
Fue por querer, y por si alguno no sabe,
          C5     D5          e5
que hice mio tu nombre Almafuerte.

Intro x4

Fuente original: LaCuerda
Colaborador original: Andres [andres_junior@ciudad.com.ar]





Calificar esta versión:
Aviso: Este fichero es trabajo propio de su transcriptor y representa su interpretación personal de la canción. El material contenido en esta página es para exclusivo uso privado, por lo que se prohibe su reproducción o retransmisión, así como su uso para fines comerciales.
Más versiones de Almafuerte, Almafuerte
Almafuerte
acordes
Almafuerte
tablatura
Almafuerte (ver 2)
tablatura
Almafuerte (ver 3)
tablatura
Almafuerte (ver 4)
tablatura
Almafuerte
bajo
Descubre más canciones de Almafuerte