Aunque No Te Pueda Ver, Alex Ubago (teclado)

Autor: Anónimo | 45384 visualizaciones

AKA EMPIEZO OJALA ME ENTIENDAN TODA ESTA WEBADA
AHH VERDAD.. TENGO KE ESCRIBIR TODO FEELING
TONS SERIA ASI..

AY PLIS OJALA ME ENTIENDAN, LO HICE KON MUCHO AMOR
PARA TODOS USTEDES =)

|  |   | |   |  |  |   | |   | |   |  |
|  |   | |   |  |  |   | |   | |   |  |
|  |DO#| |MIb|  |  |FA#| |LAb| |SIb|  |
|  |_ _| |_ _|  |  |_ _| |_ _| |_ _|  |
|    |     |    |    |     |     |    |
|    |     |    |    |     |     |    |
|    |     |    |    |     |     |    |
| DO | RE  | MI | FA | SOL | LA  | SI |
|____|_____|____|____|_____|_____|____|

MINUTO 0:00 (PIANO).. -> TONO A

MI - SI - FA# - LA - LAb - FA# - MI - FA# - LAb - FA#

SI - LA - LAB - FA# - MI

MINUTO 0:08 (GUITARRA)
e---2------2---4--------4------------------------------
b-----4-----------5---7--4--2/4---2-4---------------2--
g-------4-----------4-----------------4---2-1-------2--
D---------------------------------------------4-----2--
A---2----------2------------------------------------0--
E------------------------------------------------------

MINUTO 0:16 (PIANO).. -> TONO A
                                 SI AYER TUVISTE UN
MI - SI - FA# - LA - LAb - FA# - MI - FA# - LAb - FA#

DIA GRIS ...
SI - LA - LAB - FA# - MI


MINUTO 0:33 (PIANO).. UN TONO MAS ABAJO!! -> TONO B

                              SI LO KE KIERES ES HUIR
MI - SI - FA# - LA - LAb - FA# - MI - FA# - LAb - FA#

CAMINA.....
SI - LA - LAB - FA# - MI


MINUTO 1:42 (PIANO).. MEDIO TONO MAS ABAJO KE EL
                       ANTERIOR ->  TONO C

                     AUNKE NO TE PUEDA VER...
MI - LA - LAb - FA# - MI - MI

MINUTO 1:46 (GUITARRA)..

e|------4-4-4-4-4-4-4--2-4-2-4--7-7-7-6/7-7-7-7--
B|---------------------2-4-2-4-------------------
G|---4--4-4-4-4-4-4-4-----------8-8-8-7/8-8-8-8--
D|-7---------------------------------------------
A|-----------------------------------------------
E|-----------------------------------------------

e|11/12-11---------------
B|---------12-7/9-7-5-7--
G|-----------------------
D|-----------------------
A|-----------------------
E|-----------------------



MINUTO 2:16 (PIANO).. TONO B

                               MIRADAS TRISTES SOBRE
MI - SI - FA# - LA - LAb - FA# - MI - FA# - LAb - FA#
MI SE ANIDAN .....
SI - LA - LAB - FA# - MI

MINUTO 3:27 (PIANO).. TONO C

AUNKE NO TE PUEDA VER...
MI - LA - LAb - FA# - MI - MI

MINUTO 3:33 (GUITARRA)
e|------4-4-4-4-4-4--2-4-2--7-7-7-6/7-7-7--11/12-11---------------
B|--------------------------------------------------12-7/9/7-5-5--
G|---4--4-4-4-4-4-4--2-4-2--8-8-8-7/8-8-8-------------------------
D|-7--------------------------------------------------------------
A|----------------------------------------------------------------
E|----------------------------------------------------------------

OJITO OJITOO LOS ARPEGIOS DE GUITARRA NO LOS PUSE COMPLETOS POR
KE LOGIKAMENTE ESTO SE TRATA DE PIANO NO D GUITARRA, SOLO LO PUSE
PA KE SE PUEDAN GUIAR ALGUITO.. YA LEAN ESTO
SI SE DAN CUENTA LAS NOTAS KE SE USAN EL PIANO SON LAS MISMAS
KE SE USAN EN LOS ACORDES DE LA KANCION.... JAA =)PERO SI PES
ME PARECE Y TOY SEGURISIMOOOOOOOOOOOOOOOO SEGURO
KE LA PRIMERA TRANSCRIPCION KE PARECE DE ESTA CANCION ESTA CORRECTA
A VER PA KE NO SE EKIVOKEN ME REFIERO A LA DE ROMINA
A VER FIJENSE EN ESTO:

SI - B - LA.. ETC... AHH OBVIO KE SOL# ES LA MISMA WEBADA KE
KE LAb  TONS SI ESTA BIEN ...

SOLO LES DIGO PA KE PUEDAN HACERLE ARREGLOS =)
PA KE PUEDAN TOKAR UNA VERSION PAJA!!

YA SORRY LA PORKERIA DE PIANO KE DIBUJE ARRIBA, SE ME HIZO DIFICL
HACERLA, PERO YA PES LO HICE SOLO PA DARLE SUNA REFERENCIA

YAYAYA MUCHA WEBADA
OE YA NADA SI NO ME ENTIENDEN NI MIERDA... PUES NADA ME ESCRIBEN
AL MAIL KE PAARECE ARRIBA...

ESTA CANCION SE LA KIERO DEDIKAR A UNA PERSONA MUY ESPECIAL
UNA CHIKA SUPER MARAVILLOSA... SOLO A TI...
TU YA SABES!! =).. EVELYN!!

Fuente original: LaCuerda
Colaborador original: renzo moran [skanito_182@hotmail.com]
Calificar esta versión:
Aviso: Este fichero es trabajo propio de su transcriptor y representa su interpretación personal de la canción. El material contenido en esta página es para exclusivo uso privado, por lo que se prohibe su reproducción o retransmisión, así como su uso para fines comerciales.