Aunque No Te Pueda Ver, Alex Ubago (tablatura) (ver 4)

Autor: aledex_guitarra | 39120 visualizaciones

Intro: E - B - A - B - E - G#m - A

*Esta parte es la del piano, por si quieren tocarlo*
e|----19----17-16-----------16-----19-17-16--------|
B|-17----19-------19-17.-19----19.----------19-17.-|
G|-------------------------------------------------|
D|-------------------------------------------------|
A|-------------------------------------------------|
E|-------------------------------------------------|

*Esta es la de la guitarra*
				       |--A--|
e|-2----2-4------4--------------------------0--|
B|---4------5--7---4-2-2/4.---4------------2---|
G|----4------4--------------4---2-1-------2----|
D|----------------------------------4-2--2-----|
A|-2------7-----------------------------0------|
E|---------------------------------------------|


*Luego de esto siguen las estrofas y el Coro.

*En la última frase del coro hay un riff:

        	        (Riff)	       
...aunque no te pueda ver, aunque no te pueda ver...

Riff
e|---5-4-----------|
B|-------7-5-5/7.--|
G|-4---------------|
D|-----------------|
A|-----------------|
E|-----------------|


Y luego viene el Solo.


Solo: E - G#m - A - B - C#m
e|------4-4-4-4-4-4-4--2-4-2-4--7-7-7-6/7-7-7-7--11/12-11---------------
B|---------------------2-4-2-4----------------------------12-7/9-7-5-7--
G|---4--4-4-4-4-4-4-4-----------8-8-8-7/8-8-8-8-------------------------
D|-7--------------------------------------------------------------------
A|----------------------------------------------------------------------
E|----------------------------------------------------------------------

e|---------------------------|
B|---5-7/9.-7-5-7.-5-4-------|
G|-6-------------------4/6.--|
D|---------------------------|
A|---------------------------|
E|---------------------------|


Luego algo más de letra..., y el Final.


Solo Final: E - G#m - A - B - C#m - B  (y se repite hasta que acaba)
e|------4-4-4-4-4-4--2-4-2--7-7-7-6/7-7-7--11/12-11---------------
B|--------------------------------------------------12-7/9/7-5-5--
G|---4--4-4-4-4-4-4--2-4-2--8-8-8-7/8-8-8-------------------------
D|-7--------------------------------------------------------------
A|----------------------------------------------------------------
E|----------------------------------------------------------------

e|-----4-5-4----------------------------------
B|---5-------7.-5-4--------4-5-7/9-7.-----7.--
G|-4----------------4/6.-6--------------8-----
D|------------------------------------9-------
A|--------------------------------------------
E|--------------------------------------------

e|------4-4-4-4-4-4--2-4-2--7-7-7-6/7-7-7----9-11-12-11-9.—-
B|-----------------------------------------9----------------
G|---4--4-4-4-4-4-4--2-4-2--8-8-8-7/8-8-8-------------------
D|-7--------------------------------------------------------
A|----------------------------------------------------------
E|----------------------------------------------------------

e|--------------------------4-----------------|
B|-12-10-9------7/9.----5-7------4-5-7/9-7----|
G|---------11-9-------6-------6.--------------|
D|-----------------------------------------9--|
A|--------------------------------------------|
E|--------------------------------------------|


Calificar esta versión:
Aviso: Este fichero es trabajo propio de su transcriptor y representa su interpretación personal de la canción. El material contenido en esta página es para exclusivo uso privado, por lo que se prohibe su reproducción o retransmisión, así como su uso para fines comerciales.