Aunque No Te Pueda Ver, Alex Ubago (tablatura) (ver 5)

Autor: rolax2011 | 42657 visualizaciones

Intro:
Piano.
e|---19---0--------------16-----19-17-16-14-12------11-11-12---------12-|
B|-17--19-22-21-19-17-19---19------------------12---12-------12----12---|
G|--------21---------------16------------------14---11----------13------|
D|--------21---------------16------------------11---13------------------|
A|-------------------------18-------------------------------------------|
E|----------------------------------------------------------------------|

e|-16-16-14---4--5------------------------------------------------------|
B|------------4--5------------------------------------------------------|
G|------------4--6------------------------------------------------------|
D|------------6--7------------------------------------------------------|
A|------------6--7------------------------------------------------------|
E|------------4--5------------------------------------------------------|

Guitarra
e|------------0-------0-4-------------------------|
B|----4-----4---0---0------4-2--0-4-------------2-|
G|----4-4---------4-----------------2--1-------2--|
D|----4---4------------------------------4-2--2---|
A|-------------------------------------------0----|
E|------------------------------------------------|


Intro: Modificado para guitarra acústica.
e|-----7---5-4-------4-----7-5-4--------------------|
B|---5---7-----7-5-7---7---------7-5----------------|
G|--------------------------------------------------|
D|--------------------------------------------------|
A|--------------------------------------------------|
E|--------------------------------------------------|

Intro Guitarra
e|------------0-------0-4-------------------------|
B|----4-----4---0---0------4-2--0-4-------------2-|
G|----4-4---------4-----------------2--1-------2--|
D|----4---4------------------------------4-2--2---|
A|-------------------------------------------0----|
E|------------------------------------------------|

Verso:
     E               B              A          B                      E
     Si ayer tuviste un día gris... tranquila  yo haré canciones para ver
e|-----0-4---2-0-----------2--0-----------------------------------------|
B|---0-----------4-------0------4-2--2-----------------2---2-4-----4----|
G|-----------------------------------2-------------------2-------4------|
D|-2-------------------4-------------2-------------------------4--------|
A|------------------2----------------0----------------------------------|
E|-----------------------------------0----------------------------------|
                   G#m               A
     Si así consigo hacerte...   sonreír.
e|-0-----0-4--2-0----------2--0-----------------------------------------|
B|-----0----------4------0------4----2----------------------------------|
G|-----------------------------------2----------------------------------|
D|---2-----------------4-------------2----------------------------------|
A|-------------------2------------0--0----------------------------------|
E|----------------------------------------------------------------------|
     E                 B            A         B                    E
     Si lo que quieres es huir....  camina yo haré canciones para ver
e|-----0-4---2-0-----------2--0-----------------------------------------|
B|---0-----------4-------0------4-2--2-----------------2---2-4-----4----|
G|-----------------------------------2-------------------2-------4------|
D|-2-------------------4-------------2-------------------------4--------|
A|------------------2----------------0----------------------------------|
E|-----------------------------------0----------------------------------|
                    G#m              A
     Si así consigo fuerzas pa´   vivir...
e|-0-----0-4--2-0----------2--0-----------------------------------------|
B|-----0----------4------0------4----2----------------------------------|
G|-----------------------------------2----------------------------------|
D|---2-----------------4-------------2----------------------------------|
A|-------------------2------------0--0----------------------------------|
E|----------------------------------------------------------------------|

E            B             A             B            E
No tengo mas motivos para darte que este miedo que me da,

              G#m          A
y no volver a verte nunca mas.


E                                       G#m
Creo ver la lluvia caer en mi ventana te veo pero no esta lloviendo
                  A                 B                C#m        B
no es mas que un reflejo de mi pensamiento hoy te hecho de menoss..
E                                              G#m
Yo solo quiero hacerte saber amiga estés donde estés
                                    A
que si te falta el aliento yo te lo daré,
              B        C#m                    B
si te sientes sola háblame que te estaré escuchando
        A?                      B?
aunque no te pueda ver,  aunque no te pueda ver.


solo de guitarra.
       E                         G#m                          A
e|-----4-4-4-4-4-4----4-2-0-2-4--/7-7-7-7-7-6/7--11p12--11--------------|
B|---------------------------------------------------------12-7p9-7-5-7-|
G|-2/4-4-4-4-4-4-4--4------------/8-8-8-8-8-7/8-------------------------|
D|----------------------------------------------------------------------|
A|----------------------------------------------------------------------|
E|----------------------------------------------------------------------|
     B               C#m
e|----------------------------------------------------------------------|
B|----5-7/9--7-5-7--5p4-------------------------------------------------|
G|--6-------------------4h6---------------------------------------------|
D|----------------------------------------------------------------------|
A|----------------------------------------------------------------------|
E|----------------------------------------------------------------------|


Verso 2:
     E                B             A             B               E
     De tantas cosas que perdí...  diría  que solo guardo lo que fue
e|-----0-4---2-0-----------2--0-----------------------------------------|
B|---0-----------4-------0------4-2--2-----------------2---2-4-----4----|
G|-----------------------------------2-------------------2-------4------|
D|-2-------------------4-------------2-------------------------4--------|
A|------------------2----------------0----------------------------------|
E|-----------------------------------0----------------------------------|
                   G#m             A
     mágico tiempo que nació un  abril...
e|-0-----0-4--2-0----------2--0-----------------------------------------|
B|-----0----------4------0------4----2----------------------------------|
G|-----------------------------------2----------------------------------|
D|---2-----------------4-------------2----------------------------------|
A|-------------------2------------0--0----------------------------------|
E|----------------------------------------------------------------------|

     E               B            A                  B              E
     Miradas tristes sobre mí se anidan... y se hacen parte de mi piel
e|-----0-4---2-0-----------2--0-----------------------------------------|
B|---0-----------4-------0------4-2--2-----------------2---2-4-----4----|
G|-----------------------------------2-------------------2-------4------|
D|-2-------------------4-------------2-------------------------4--------|
A|------------------2----------------0----------------------------------|
E|-----------------------------------0----------------------------------|
                   G#m              A
   Y ahora siempre llueve porque estoy sin ti.
e|-0-----0-4--2-0----------2--0-----------------------------------------|
B|-----0----------4------0------4----2----------------------------------|
G|-----------------------------------2----------------------------------|
D|---2-----------------4-------------2----------------------------------|
A|-------------------2------------0--0----------------------------------|
E|----------------------------------------------------------------------|

E            B             A             B        E
No tengo más motivos para darte que esta fría soledad

           G#m          A
y necesito darte tantas cosas mas.

E                                       G#m
Creo ver la lluvia caer en mi ventana te veo pero no esta lloviendo
                  A                 B                C#m        B
no es mas que un reflejo de mi pensamiento hoy te hecho de menoss..
E                                              G#m
Yo solo quiero hacerte saber amiga estés donde estés
                                    A
que si te falta el aliento yo te lo daré,
              B        C#m                    B
si te sientes sola háblame que te estaré escuchando
        A?              *       B?
aunque no te pueda ver,  aunque no te pueda ver.

* e|---5-4-----------|
  B|-------7-5-5/7.--|
  G|-4---------------|
  D|-----------------|
  A|-----------------|
  E|-----------------|

SOLO 2
       E                         G#m                           A
e|-----4-4-4-4-4-4-----4-2-0-2-4--/7-7-7-7-7-6/7--11p12--11-------------|
B|----------------------------------------------------------12-7p9-7-5--|
G|-2/4-4-4-4-4-4-4---4------------/8-8-8-8-8-7/8------------------------|
D|----------------------------------------------------------------------|
A|----------------------------------------------------------------------|
E|----------------------------------------------------------------------|
    B               C#m              B              E
e|--------------------------------------------------4-4-4-4-4-4---|
B|----5-7p9-10p9--7-5p4----------5-7/9-7-0-0-9--------------------|
G|--6-------------------4p6--4-6----------------2/4-4-4-4-4-4-4---|
D|----------------------------------------------------------------|
A|----------------------------------------------------------------|
E|----------------------------------------------------------------|
                 G#m                         A               B
e|----4-2-0-2-4--/7-7-7-7-7-6/7----9-11-12-11-9-------------------|
B|-------------------------------9--------------12p10-9-7-5-7/9---|
G|--4------------/8-8-8-8-8-7/8-----------------------------------|
D|----------------------------------------------------------------|
A|----------------------------------------------------------------|
E|----------------------------------------------------------------|
        C#m            B                  E
e|--------4-------------------------------4-4-4-4-4-4---4-2-0-2-4-|
B|----5-7----------4-5-7/9-7------7-------------------------------|
G|--6-------6~.--6-----------8------8?2/4-4-4-4-4-4-4-4-----------|
D|-----------------------------9----------------------------------|
A|-----------------------------------------------------------Fade-|
E|----------------------------------------------------------------|




paty esto es para ti mi mas grande amiga del cobat sabes que siempre pudes contar conmigo tu gra amigo rolando
Calificar esta versión:
Aviso: Este fichero es trabajo propio de su transcriptor y representa su interpretación personal de la canción. El material contenido en esta página es para exclusivo uso privado, por lo que se prohibe su reproducción o retransmisión, así como su uso para fines comerciales.