Aunque No Te Pueda Ver, Alex Ubago (tablatura) (ver 2)

Autor: Anónimo | 44582 visualizaciones

I)	La afinación de la Guitarra tiene que ser
4:40 o 4:41 no más si se pasa una tonalidad
más se distorsionará la canción y no sonara
Igual que la del disco.


II)	Todo tiene que estar tocado como indico
Acá, para que suene igual a la del disco
“Si no pueden darle el toque o su estilo
a la canción” o el que le quieran dar..


III)	Todos los acordes están en su lugar,
Y todos están claros y con su respectivo
Nombre si no saben alguno escriban a mi correo..


IV)	ACLARACIONES
Las notas las puse a como esta en la nota de
La canción hay unas que son el tercer tono de
Las notas normales como C#m5, Aadd8,Bm8 y E/Gb  son la
Tercera tonalidad de la canción pera así está
En la canción Y NO SON ALTERACIONES de la misma
Si no quieren esas alteraciones pues tóquenla con un
Piano y Guitarra y listo... la canción si sonara como
Que estuvieran tocando las dos cosas la canción lleva
Dos Guitarras... Dudas a mi correo eso es todo espero
Que les guste y esto es todo claro los arpegios están bien
Van tocados con acorde |--E--| de cada terminación indica acorde a tocar...

Esta cancion va dedicada a BELLANIRA MEDRANO del SAGRADA
ATTE: Un Admirador Secreto..
Intro: E - B - A - B - E - G#m - A

Riff I
Esta es la parte del piano si la quieren tocar claro..
e|----19----17-16-----------16-----19-17-16--------|
B|-17----19-------19-17.-19----19.----------19-17.-|
G|-------------------------------------------------|
D|-------------------------------------------------|
A|-------------------------------------------------|
E|-------------------------------------------------|

Acá Toca la Guitarra…
				   |--A--|
e|-2----2-4------4--------------------------0--|
B|---4------5--7---4-2-2/4.---4------------2---|
G|----4------4--------------4---2-1-------2----|
D|----------------------------------4-2--2-----|
A|-2------7-----------------------------0------|
E|---------------------------------------------|

Si ayer tuviste un día gris
 |--E--|             |--B--|
e|-----------0-------|-2--------4----4--|-----------------------
B|---------0---0-----|-2------4---4-----|-----------------------
G|-1-----1---1---0---|-2----4---4---4---|-----------------------
D|---2---------------|-2----------------|-----------------------
A|-----2-------------|-2--2-------------|-----------------------
E|--0----------------|-2----------------|-----------------------

tranquila yo haré canciones para ver
 |--A--|             |--B--|            |--E--|
e|--------0----------|-2--------4-------|------0----------------
B|-2----2---2--------|-2-0----4---4-----|-1--0------------------
G|-2--2-------2-0----|-2----4-------4---|-0-1-------------------
D|-2-----------------|-2----------------|-----------------------
A|----0--------------|-2--2-------------|-----------------------
E|-------------------|-2----------------|-0---------------------

si así consigo hacerte sonreír
 |--E--|             |--B--|       |--A--|
e|---2----2-4--------|-----------------0|-0---------------------
B|-----4------5-2p4--|-4--------------2-|---2-------------------
G|-------4------4----|4--2-1--------2---|-----2-----------------
D|-------------------|------4-2---2-----|-----------------------
A|-2-----------------|----------0-------|-----------------------
E|-------------------|------------------|-----------------------


Si lo que quieres es huir
 |--E--|             |--B--|
e|-----------0-------|-2--------4-----4-|-----------------------
B|---------0---0-----|-2------4----4----|-----------------------
G|-1-----1---1---0---|-2----4----4---4--|-----------------------
D|---2---------------|-2----------------|-----------------------
A|-----2-------------|-2--2-------------|-----------------------
E|--0----------------|-2----------------|-----------------------

Camina yo haré canciones para ver
 |--A--|             |--B--|            |--E--|
e|--------0----------|-2--------4-------|------0----------------
B|-2----2---2--------|-2-0----4---4-----|-1--0------------------
G|-2--2-------2-0----|-2----4-------4---|-0-1-------------------
D|-2-----------------|-2----------------|-----------------------
A|----0--------------|-2--2-------------|-----------------------
E|-------------------|-2----------------|-0---------------------

Si así consigo fuerzas pa’ vivir
 |--E--|             |--B--|       |--A--|
e|---2----2-4--------|-----------------0|-----------------------
B|-----4------5-2p4--|-4--------------2-|-----------------------
G|-------4------4----|4--2-1---------2--|-----------------------
D|-------------------|-------4-2---2----|-----------------------
A|-2-----------------|-----------0------|-----------------------
E|-------------------|------------------|-----------------------


Pre Coro

No tengo más motivos para darte
 |--E--|             |--B--|            |--A--|
e|-----------0-------|-2--------4----4--|--------0----------|
B|---------0---0-----|-2------4---4-----|-2----2---2--------|
G|-1-----1---1---0---|-2----4---4---4---|-2--2-------2-0----|
D|---2---------------|-2----------------|-2-----------------|
A|-----2-------------|-2--2-------------|----0--------------|
E|--0----------------|-2----------------|-------------------|





Que este miedo que me da el no volver
 |--B--|            |--C#m--|
e|-2--------4-------|-4-------4----4--|---------------------
B|-2-0----4---4-----|-4-5--------5--5-|---------------------
G|-2----4-------4---|-4---6----6--6--6|---------------------
D|-2----------------|-4-----6---------|---------------------
A|-2--2-------------|-4-------4-------|---------------------
E|-2----------------|-4---------------|---------------------

A verte nunca más L
 |--B--|            |--A--|
e|-2--------4-------|------------0----|---------------------
B|-2-0----4---4-----|----------2------|---------------------
G|-2----4-------4---|-------2---------|---------------------
D|-2----------------|----2------------|---------------------
A|-2--2-------------|-0---------------|---------------------
E|-2----------------|-----------------|---------------------

CORO

El coro hay que Digitarlo

E
Creo ver la lluvia caer,
                  G#m               C#m
en mi ventana te veo pero no está lloviendo,
                 Aadd8                 B
no es más que un reflejo de mi pensamiento,
                  C#m - B
hoy te echo de menos...
    E
Yo sólo quiero hacerte saber,
                   G#m
amiga estés donde estés
                     E/Gb               A
que si te falta el aliento yo te lo daré,
               G#m    E
si te sientes sola, háblame,
                   B
que te estaré escuchando
       A
aunque no te pueda ver,
       B              Bm8
aunque no te pueda ver...
Riff II
e|---5-4-----------|
B|-------7-5-5/7.--|
G|-4---------------|
D|-----------------|
A|-----------------|
E|-----------------|

Solo: E - G#m - A - B - C#m
e|------4-4-4-4-4-4-4--2-4-2-4--7-7-7-6/7-7-7-7--11/12-11---------------
B|---------------------2-4-2-4----------------------------12-7/9-7-5-7--
G|---4--4-4-4-4-4-4-4-----------8-8-8-7/8-8-8-8-------------------------
D|-7--------------------------------------------------------------------
A|----------------------------------------------------------------------
E|----------------------------------------------------------------------

e|---------------------------|
B|---5-7/9.-7-5-7.-5-4-------|
G|-6-------------------4/6.--|
D|---------------------------|
A|---------------------------|
E|---------------------------|


De tantas cosas que perdí
 |--E--|             |--B--|
e|-----------0-------|-2--------4----4--|-----------------------
B|---------0---0-----|-2------4---4-----|-----------------------
G|-1-----1---1---0---|-2----4---4---4---|-----------------------
D|---2---------------|-2----------------|-----------------------
A|-----2-------------|-2--2-------------|-----------------------
E|--0----------------|-2----------------|-----------------------

Diría que solo guardo lo que fue
 |--A--|             |--B--|            |--E--|
e|--------0----------|-2--------4-------|------0----------------
B|-2----2---2--------|-2-0----4---4-----|-1--0------------------
G|-2--2-------2-0----|-2----4-------4---|-0-1-------------------
D|-2-----------------|-2----------------|-----------------------
A|----0--------------|-2--2-------------|-----------------------
E|-------------------|-2----------------|-0---------------------



Mágico tiempo que nació un Abril
 |--E--|             |--B--|       |--A--|
e|---2----2-4--------|-----------------0|-0---------------------
B|-----4------5-2p4--|-4--------------2-|---2-------------------
G|-------4------4----|4--2-1--------2---|-----2-----------------
D|-------------------|------4-2---2-----|-----------------------
A|-2-----------------|----------0-------|-----------------------
E|-------------------|------------------|-----------------------


Miradas tristes sobre mi
 |--E--|             |--B--|
e|-----------0-------|-2--------4----4--|-----------------------
B|---------0---0-----|-2------4---4-----|-----------------------
G|-1-----1---1---0---|-2----4---4---4---|-----------------------
D|---2---------------|-2----------------|-----------------------
A|-----2-------------|-2--2-------------|-----------------------
E|--0----------------|-2----------------|-----------------------

Se anidan y se hacen parte de mi piel
 |--A--|             |--B--|            |--E--|
e|--------0----------|-2--------4-------|------0----------------
B|-2----2---2--------|-2-0----4---4-----|-1--0------------------
G|-2--2-------2-0----|-2----4-------4---|-0-1-------------------
D|-2-----------------|-2----------------|-----------------------
A|----0--------------|-2--2-------------|-----------------------
E|-------------------|-2----------------|-0---------------------

Y ahora siempre llueve porque estoy sin tii..
 |--E--|             |--B--|       |--A--|
e|---2----2-4--------|-----------------0|-0---------------------
B|-----4------5-2p4--|-4--------------2-|---2-------------------
G|-------4------4----|4--2-1--------2---|-----2-----------------
D|-------------------|------4-2---2-----|-----------------------
A|-2-----------------|----------0-------|-----------------------
E|-------------------|------------------|-----------------------


Pre Coro

No tengo más motivos para darte
 |--E--|             |--B--|            |--A--|
e|-----------0-------|-2--------4----4--|--------0----------|
B|---------0---0-----|-2------4---4-----|-2----2---2--------|
G|-1-----1---1---0---|-2----4---4---4---|-2--2-------2-0----|
D|---2---------------|-2----------------|-2-----------------|
A|-----2-------------|-2--2-------------|----0--------------|
E|--0----------------|-2----------------|-------------------|

Que esta fría soledad que necesitó
 |--B--|            |--C#m--|
e|-2--------4-------|-4-------4----4--|---------------------
B|-2-0----4---4-----|-4-5--------5--5-|---------------------
G|-2----4-------4---|-4---6----6--6--6|---------------------
D|-2----------------|-4-----6---------|---------------------
A|-2--2-------------|-4-------4-------|---------------------
E|-2----------------|-4---------------|---------------------

Darte tantas cosas másL
 |--B--|            |--A--|
e|-2--------4-------|------------0----|---------------------
B|-2-0----4---4-----|----------2------|---------------------
G|-2----4-------4---|-------2---------|---------------------
D|-2----------------|----2------------|---------------------
A|-2--2-------------|-0---------------|---------------------
E|-2----------------|-----------------|---------------------


CORO

El coro hay que Digitarlo

E
Creo ver la lluvia caer,
                  G#m               C#m
en mi ventana te veo pero no está lloviendo,
                 Aadd8                 B
no es más que un reflejo de mi pensamiento,
                  C#m5 - B
hoy te echo de menos...
    E
Yo sólo quiero hacerte saber,
                   G#m
amiga estés donde estés
                     E/Gb               Aadd8
que si te falta el aliento yo te lo daré,

G#m                    E
si te sientes sola, háblame,
                   B
que te estaré escuchando
       Aadd8
aunque no te pueda ver,
       B              Bm8
aunque no te pueda ver...


Esto es el solo final del la Guitarra y del Piano 2 Güitarras
Riff III
 E - G#m - A - B - C#m - B  (Y se repite 2 veces)
e|------4-4-4-4-4-4--2-4-2--7-7-7-6/7-7-7--11/12-11---------------
B|--------------------------------------------------12-7/9/7-5-5--
G|---4--4-4-4-4-4-4--2-4-2--8-8-8-7/8-8-8-------------------------
D|-7--------------------------------------------------------------
A|----------------------------------------------------------------
E|----------------------------------------------------------------

e|-----4-5-4----------------------------------
B|---5-------7.-5-4--------4-5-7/9-7.-----7.--
G|-4----------------4/6.-6--------------8-----
D|------------------------------------9-------
A|--------------------------------------------
E|--------------------------------------------

e|------4-4-4-4-4-4--2-4-2--7-7-7-6/7-7-7----9-11-12-11-9.—-
B|-----------------------------------------9----------------
G|---4--4-4-4-4-4-4--2-4-2--8-8-8-7/8-8-8-------------------
D|-7--------------------------------------------------------
A|----------------------------------------------------------
E|----------------------------------------------------------

e|--------------------------4-----------------|
B|-12-10-9------7/9.----5-7------4-5-7/9-7----|
G|---------11-9-------6-------6.--------------|
D|-----------------------------------------9--|
A|--------------------------------------------|
E|--------------------------------------------|

Esto lo tocas solo una vez después de haber repetido
El Riff III dos veces (ES LA PARTE FINAL DE LA CANCIÓN)

Riff IV
E - G#m - A - B - C#m - B
e|------4-4-4-4-4-4--2-4-2--7-7-7-6/7-7-7--11/12-11---------------
B|--------------------------------------------------12-7/9/7-5-5--
G|---4--4-4-4-4-4-4--2-4-2--8-8-8-7/8-8-8-------------------------
D|-7--------------------------------------------------------------
A|----------------------------------------------------------------
E|----------------------------------------------------------------

Fuente original: LaCuerda
Colaborador original: dilan de la vega [kyo3297@hotmail.com]
Calificar esta versión:
Aviso: Este fichero es trabajo propio de su transcriptor y representa su interpretación personal de la canción. El material contenido en esta página es para exclusivo uso privado, por lo que se prohibe su reproducción o retransmisión, así como su uso para fines comerciales.