Burrito Sabanero, Villancicos (tablatura) (ver 2)

Autor: pp0738 | 49928 visualizaciones



BY: JOSÉ XAVIER ZAMBRANO GÓMEZ


CON MI BURRITO SABANERO VOY CAMINO DE BELEN
                                                                                                          x2
E-3-3-3-3-3-3-3-8-8-8-8-5-5-3-5-7---------------------------|
B--------------------------------------------------------------|
G--------------------------------------------------------------|
D--------------------------------------------------------------|
A--------------------------------------------------------------|
E--------------------------------------------------------------|

SI ME VEN , SI ME VEN VOY CAMINO DE BELEN
                                                                                                          x2
E-3-3-0---3-3----3/7-7-5-5-3-2-3-----------------------------|
B--------------3-----------------------------------------------|
G--------------------------------------------------------------|
D--------------------------------------------------------------|
A--------------------------------------------------------------|
E--------------------------------------------------------------|

TUQUI TUQUI TUQUI TUQUI , TUQUI TUQUI TUQUI TA
                                                                                                          
E-7-7-7-7-5-5-3-3--7-7-7-7-5-5-3----------------------------|
B--------------------------------------------------------------|
G--------------------------------------------------------------|
D--------------------------------------------------------------|
A--------------------------------------------------------------|
E--------------------------------------------------------------|

APURATE MI BURRITO QUE YA VAMOS A LLEGAR 

E-3-3-3-3-3-3-3-7-3-0-7-5-5-3-2-3--------------------------|
B--------------------------------------------------------------|
G--------------------------------------------------------------|
D--------------------------------------------------------------|
A--------------------------------------------------------------|
E--------------------------------------------------------------|

TUQUI TUQUI TUQUI TUQUI , TUQUI TUQUI TUQUI TA
                                                                                                          x2
E-7-7-7-7-5-5-3-3--7-7-7-7-5-5-3----------------------------|
B--------------------------------------------------------------|
G--------------------------------------------------------------|
D--------------------------------------------------------------|
A--------------------------------------------------------------|
E--------------------------------------------------------------|

APURATE MI BURRITO VAMOS A VER JESÚS 

E-3-3-3-3-3-3-3-7-3-0-7-5-5-3-2-3--------------------------|
B--------------------------------------------------------------|
G--------------------------------------------------------------|
D--------------------------------------------------------------|
A--------------------------------------------------------------|
E--------------------------------------------------------------|


GRACIAS POR VER MI TABLATURA :D





Calificar esta versión:
Aviso: Este fichero es trabajo propio de su transcriptor y representa su interpretación personal de la canción. El material contenido en esta página es para exclusivo uso privado, por lo que se prohibe su reproducción o retransmisión, así como su uso para fines comerciales.
Más versiones de Burrito Sabanero, Villancicos
Burrito Sabanero
acordes
Burrito Sabanero (ver 2)
acordes
Burrito Sabanero (ver 3)
acordes
Burrito Sabanero
tablatura
Burrito Sabanero (ver 2)
tablatura
Burrito Sabanero
bajo
Burrito Sabanero
teclado
Descubre más canciones de Villancicos