Burrito Sabanero, Villancicos (bajo)

Autor: Anónimo | 47402 visualizaciones



bueno la version del burrito sabanero en la tonalidad de sol mayor dice



1/----------------8--8-8-8--5-5---5-7---
2/--8-8--8-8-8-8-8--------------8-----8-  Esto se repite en
3/--------------------------------------  Las estrofas "con mi
4/--------------------------------------  Burrito sabanero voy
                                              camino...."


la parte del "si me ven Si me ven voy ...."

1/-----------------7-7--5-5-------
2/--8-8--5--8-8--5----------8-7-8-
3/--------------------------------
4/--------------------------------

Y el coro "tuqui tuqui tuqui tuqui
           tuqui tuqui tuqui ta"

1/---7-7--7-7---5-5------7-7--7-7---5-5-----
2/------------------8-8-----------------8---
3/------------------------------------------
4/------------------------------------------


apurate mi burrito que ya vamos a llegar

1/---5-5--5-5--5-5------5-5--5------------
2/------------------7----------8-7--5-----
3/-------------------------------------7--
4/----------------------------------------


esa es la cancion escuyen un audio y se entendera mejor.


Cualquier duda me la envian a mi email
                                       [email protected]

           ¡¡¡¡¡¡¡suerte con esos villancicos!!!!!!!!!!!!





Calificar esta versión:
Aviso: Este fichero es trabajo propio de su transcriptor y representa su interpretación personal de la canción. El material contenido en esta página es para exclusivo uso privado, por lo que se prohibe su reproducción o retransmisión, así como su uso para fines comerciales.
Más versiones de Burrito Sabanero, Villancicos
Burrito Sabanero
acordes
Burrito Sabanero (ver 2)
acordes
Burrito Sabanero (ver 3)
acordes
Burrito Sabanero
tablatura
Burrito Sabanero (ver 2)
tablatura
Burrito Sabanero
bajo
Burrito Sabanero
teclado
Descubre más canciones de Villancicos