Burrito Sabanero, Villancicos (tablatura)

Autor: crissguitar | 24158 visualizaciones



Hola es mi primera cancion que suvo a esta pagina Burrito sabanero

1(------------------------------ x2
2(--------------1-1-1-1--------0
3(0-0-0-0-0-0-0--------2-2-0-2--
4(------------------------------
5(------------------------------
6(------------------------------

Segunda parte
1(-------------------------- x2
2(-------------0-0----------
3(0-0-0--0-0-0-----2-2-0---0
4(-----------------------4--
5(--------------------------
6(--------------------------

Tercera parte
1(--------------------------------------------------------- x2
2(0-0-0-0-0-0----1-1-1-1-1-1---------------0----0----------
3(-----------2-0-------------0--0-0-0-0-0-0--0----2-0---2-0
4(---------------------------------------------0------4----
5(---------------------------------------------------------
6(---------------------------------------------------------

luego se repite
1(------------------------------ x2
2(--------------1-1-1-1--------0
3(0-0-0-0-0-0-0--------2-2-0-2--
4(------------------------------
5(------------------------------
6(------------------------------

Aqui termina

1(-------------------------- x2    
2(-------------0-0----------        
3(0-0-0--0-0-0-----2-2-0---0      fin
4(-----------------------4--
5(--------------------------
6(--------------------------


Fin gracias si hay un error abisenme comenten





Calificar esta versión:
Aviso: Este fichero es trabajo propio de su transcriptor y representa su interpretación personal de la canción. El material contenido en esta página es para exclusivo uso privado, por lo que se prohibe su reproducción o retransmisión, así como su uso para fines comerciales.
Más versiones de Burrito Sabanero, Villancicos
Burrito Sabanero
acordes
Burrito Sabanero (ver 2)
acordes
Burrito Sabanero (ver 3)
acordes
Burrito Sabanero
tablatura
Burrito Sabanero (ver 2)
tablatura
Burrito Sabanero
bajo
Burrito Sabanero
teclado
Descubre más canciones de Villancicos