Magia Blanca, Turf (tablatura) (ver 4)

Autor: ramirob | 35189 visualizaciones

Turf - Magia blanca              
 tablatura 
intro

 rif
e|----------------------------------|
B|----------------------------------|
G|----------------------------------|
D|----------------------------------|
A|0/2-2-2-2-2-------------------2-0-|
E|------------5--5-5-3-5--3-5-3-----|

e|-------------------------------------------------------|
B|-------------------------------------------------------|
G|-------------------------------------------------------|
D|-------------------------------------------------------|
A|0/2-2-2-2-2------5--5-5--3--2-0---------0-2---------0/2|
E|---------------------------------3-5-3---------0-3-----|

Comentarios del colaborador: hola , este es mi segundo post . este mi mi correo , ramirob172@gmail.com . y este mi canal - https://www.youtube.com/channel/uccvjm_jceu0-ob53hr0t9vw#_=_

Calificar esta versión:
Aviso: Este fichero es trabajo propio de su transcriptor y representa su interpretación personal de la canción. El material contenido en esta página es para exclusivo uso privado, por lo que se prohibe su reproducción o retransmisión, así como su uso para fines comerciales.
Más versiones de Magia Blanca, Turf
Magia Blanca
acordes
Magia Blanca (ver 2)
acordes
Magia Blanca
tablatura
Magia Blanca (ver 2)
tablatura
Magia Blanca (ver 3)
tablatura
Magia Blanca (ver 4)
tablatura
Magia Blanca
bajo
Descubre más canciones de Turf