Magia Blanca, Turf (tablatura)

Autor: LEOelRENGO | 19500 visualizaciones

intro: la sak yo asiq va jaja

e----------------------------------------
b----------------------------------------
g----------------------------------------
d----------------------------------------
a-0h2h-2-2-2-2-0--0-0--0---0--2-0-0------
e---------------------3---3--3---3-3-----


e--------------------------------------------
b--------------------------------------------
g--------------------------------------------
d--------------------------------------------
a--0h2h-2-2-2-2--5-5s6-3-2-0--0---0--2-0-0---
e----------------------------3--3--3----3-3--
Calificar esta versión:
Aviso: Este fichero es trabajo propio de su transcriptor y representa su interpretación personal de la canción. El material contenido en esta página es para exclusivo uso privado, por lo que se prohibe su reproducción o retransmisión, así como su uso para fines comerciales.
Más versiones de Magia Blanca, Turf
Magia Blanca
acordes
Magia Blanca (ver 2)
acordes
Magia Blanca
tablatura
Magia Blanca (ver 2)
tablatura
Magia Blanca (ver 3)
tablatura
Magia Blanca (ver 4)
tablatura
Magia Blanca
bajo
Descubre más canciones de Turf