Magia Blanca, Turf (bajo)

Autor: nicoled | 42717 visualizaciones

INTROX4


G------------------------------------------------
D-------------------------------------------------
A ---------------------------------------57-------
E 3-----33---37----77--65---5/0--0/5---57--753----


Qué decís que no vas a mentir Si te encanta
G-------------------------------------------
D-------------------------------------------
A ---------------------------------------5--
E 3----33----37----77--65---5/0--0/5---57-753



G-------------------------------------------
D-------------------------------------------
A -----------------------------3333333
E 3----33----37----77--65---5/0-----

ESTRIBILLO
G-------------------------------------------
D-------------------------------------------
A 555555---------57-75---------------------------
E 3-----7653--357-----7653----77--65---5/0--0/5---


Qué decís que no vas a probar Si te encanta
G-------------------------------------------
D-------------------------------------------
A ------------------------------------765
E 3----33----37----77--65---5/0--0/5-----7653

Comentarios del colaborador: ESTE ES MAS O MENOS EL BAJO DE MAGIA BLANCA CUALQUIER COSITA MANDEN UN MAIL QUE LES MANDO UN VIDEO GRACIAS

Calificar esta versión:
Aviso: Este fichero es trabajo propio de su transcriptor y representa su interpretación personal de la canción. El material contenido en esta página es para exclusivo uso privado, por lo que se prohibe su reproducción o retransmisión, así como su uso para fines comerciales.
Más versiones de Magia Blanca, Turf
Magia Blanca
acordes
Magia Blanca (ver 2)
acordes
Magia Blanca
tablatura
Magia Blanca (ver 2)
tablatura
Magia Blanca (ver 3)
tablatura
Magia Blanca (ver 4)
tablatura
Magia Blanca
bajo
Descubre más canciones de Turf