Brasil, Tronic (tablatura) (ver 3)

Autor: Anónimo | 15302 visualizaciones



LOS TABS COMPLETOS DE BRASIL PARA GUITARRA SACADOS POR MI xD
RECUERDEN KE ES KON LA DISTORCION, ESPERO LES SIRVA
www.jacobihacks.weebly.com

INTRO...
|----------------------------------------|
|----------------------------------------|
|----7-8-7-------6-8-----------------10-9|
|-10------10-9-10---10-13-10-13-12-11----|
|----------------------------------------|
|----------------------------------------|

KARLA KIERE IR A BRASIL...
|---------------------------------------------|
|---------------------------------------------|
|-7-7-7-7--12-12-12-12--5-5-5-5--14-14-14-14--|
|-7-7-7-7--12-12-12-12--5-5-5-5--14-14-14-14--|
|-5-5-5-5--10-10-10-10--3-3-3-3--12-12-12-12--|
|---------------------------------------------|

BAILAN POR LAS NOCHES...
|-------------------------------------------|
|-------------------------------------------|
|-7-7-7-7--12-12-12-12--5-5-5-5-5-5-5-5-----|
|-7-7-7-7--12-12-12-12--5-5-5-5-5-5-5-5-----|
|-5-5-5-5--10-10-10-10--3-3-3-3-3-3-3-3-----|
|-------------------------------------------

PEDRO TRABAJA HASTA MORIR...
|---------------------------------------------|
|---------------------------------------------|
|-7-7-7-7--12-12-12-12--5-5-5-5--14-14-14-14--|
|-7-7-7-7--12-12-12-12--5-5-5-5--14-14-14-14--|
|-5-5-5-5--10-10-10-10--3-3-3-3--12-12-12-12--|
|---------------------------------------------|

PERO SU SEÑORA LO ENGAÑA KON SU TIO MARTIN...
|-------------------------------------------|
|-------------------------------------------|
|-7-7-7-7--12-12-12-12--5-5-5-5-5-5-5-5-----|
|-7-7-7-7--12-12-12-12--5-5-5-5-5-5-5-5-----|
|-5-5-5-5--10-10-10-10--3-3-3-3-3-3-3-3-----|
|-------------------------------------------|

A VECES LA VIDA ES ASI...
E|-----------------------------------------------------|
B|-----------------------------------------------------|
G|--3-3-3-3--5-5-5-5-----------7-7-5-5--3-3-3-3--5-55--|
R|--3-3-3-3--5-5-5-5--7-7-7-7--7-7-5-5--3-3-3-3--5-55--|
A|--1-1-1-1--3-3-3-3--7-7-7-7--5-5-3-3--1-1-1-1--3-33--|
E|--------------------5-5-5-5--------------------------|

PORKE DOCTOR...
|---------------------------------------|
|---------------------------------------|
|--77777777----------55555555-----------|
|--77777777-55555555-55555555-77777777--|
|--55555555-55555555-33333333-77777777--|
|-----------33333333----------55555555--|


TRATO DE ENTERDER...
|---------------------------------------|
|---------------------------------------|
|--77777777----------5555555555555555---|
|--77777777-55555555-5555555555555555---|
|--55555555-55555555-3333333333333333---|
|-----------33333333--------------------|

KISAS MORIR...
|---------------------------------------|
|---------------------------------------|
|--77777777----------55555555-----------|
|--77777777-55555555-55555555-77777777--|
|--55555555-55555555-33333333-77777777--|
|-----------33333333----------55555555--|

O SERA OTRO PASO...
|---------------------------------------|
|---------------------------------------|
|--77777777----------5555555555555555---|
|--77777777-55555555-5555555555555555---|
|--55555555-55555555-3333333333333333---|
|-----------33333333--------------------|

TANTO TIEMPO SIN DORMIR
|---------------------------------------------|
|---------------------------------------------|
|-7-7-7-7--12-12-12-12--5-5-5-5--14-14-14-14--|
|-7-7-7-7--12-12-12-12--5-5-5-5--14-14-14-14--|
|-5-5-5-5--10-10-10-10--3-3-3-3--12-12-12-12--|
|---------------------------------------------|

SI ESTO SIGUE ASI...
|-------------------------------------------|
|-------------------------------------------|
|-7-7-7-7--12-12-12-12--5-5-5-5-5-5-5-5-----|
|-7-7-7-7--12-12-12-12--5-5-5-5-5-5-5-5-----|
|-5-5-5-5--10-10-10-10--3-3-3-3-3-3-3-3-----|
|-------------------------------------------|

A VECES LA VIDA ES ASI...
|-----------------------------------------------------|
|-----------------------------------------------------|
|--3-3-3-3--5-5-5-5-----------7-7-5-5--3-3-3-3--5-55--|
|--3-3-3-3--5-5-5-5--7-7-7-7--7-7-5-5--3-3-3-3--5-55--|
|--1-1-1-1--3-3-3-3--7-7-7-7--5-5-3-3--1-1-1-1--3-33--|
|--------------------5-5-5-5--------------------------|

PORKE DOCTOR...
|---------------------------------------|
|---------------------------------------|
|--77777777----------55555555-----------|
|--77777777-55555555-55555555-77777777--|
|--55555555-55555555-33333333-77777777--|
|-----------33333333----------55555555--|


TRATO DE ENTERDER...
|---------------------------------------|
|---------------------------------------|
|--77777777----------5555555555555555---|
|--77777777-55555555-5555555555555555---|
|--55555555-55555555-3333333333333333---|
|-----------33333333--------------------|

KISAS MORIR...
|---------------------------------------|
|---------------------------------------|
|--77777777----------55555555-----------|
|--77777777-55555555-55555555-77777777--|
|--55555555-55555555-33333333-77777777--|
|-----------33333333----------55555555--|

O SERA OTRO PASO...
|-------------------------------------------|
|-------------------------------------------|
|--77777777----------5555555555555555--4-4--|
|--77777777-55555555-5555555555555555--4-4--|
|--55555555-55555555-3333333333333333--2-2--|
|-----------33333333------------------------|

A VECES LA VIDA ES ASI...
|------------------------------------------------------|
|------------------------------------------------------|
|--3333333-55555555----------7777-5555-3333333-555555--|
|--3333333-55555555-77777777-7777-5555-3333333-555555--|
|--1111111-33333333-77777777-5555-3333-1111111-333333--|
|-------------------55555555---------------------------|

SOLO...
|------------------------------------------------------------|
|------------------------------13-11-12-13---------------8---|
|--------10-9-8-6--------10-8-7------------9-12-9-7-9-10-----|
|-10-9-7----------10-9-7-------------------------------------|
|------------------------------------------------------------|
|------------------------------------------------------------|

|-----------------------------------------------------------------|
|-----------------------------13-11-12----------------------------|
|--------10-9-8-6------10-9-7------------9-12-8-7-----------------|
|-10-9-7---------10-9-7---------------------------10-8-7-8-10-10-9|
|-----------------------------------------------------------------|
|-----------------------------------------------------------------|


Mas info en [email protected]





Calificar esta versión:
Aviso: Este fichero es trabajo propio de su transcriptor y representa su interpretación personal de la canción. El material contenido en esta página es para exclusivo uso privado, por lo que se prohibe su reproducción o retransmisión, así como su uso para fines comerciales.
Más versiones de Brasil, Tronic
Brasil
acordes
Brasil (ver 2)
acordes
Brasil
tablatura
Brasil (ver 2)
tablatura
Brasil (ver 3)
tablatura
Brasil
bajo
Descubre más canciones de Tronic