Brasil, Tronic (tablatura) (ver 2)

Autor: Anónimo | 21183 visualizaciones



INTRO : Dm - Gm - C - Am / C -- Dm - Gm - C ...
E|--------------------------------------------8-------------------|
B|-----------------------------10-10-10-10-10---11-11-10-9--------|
G|---10-------7-10-10-9-------------------------------------------|
D|------7-8-8-------------7---------------------------------------|
A|----------------------10----------------------------------------|
E|----------------------------------------------------------------|
  Dm               Gm
Carla quiere ir a Brasil
 C                        Am  / C
Priscila quiere estar en New York
 Dm
Bailan por las noches
 Gm              C ...
Para sus sueños cumplir
  Dm                 Gm
Pedro trabaja hasta morir
  C                        Am / C
Porque quiere una familia feliz
   Dm               Gm                 C...
Pero su señora lo engaña con su Tío Martín
 Bb                 C
A veces la vida es así
Am                           Dm
Nos trata mal y nos obliga a mentir
Bb
Pero si nos pasa
C...
Todo a la mierda

CORO
Dm      Gm
Porque Doctor
           C           Am
Se va su vida sin una razón
Dm
Trato de entender
      Gm              C  ... C#
Y no encuentro una explicación
Dm      Gm
Quizás morir
            C                 Am
Es un gran sueño que no tiene fin
Dm
O será otro paso
Gm              C ...
Para volver a vivir

Dm                Gm
Tanto tiempo sin dormir
C                 Am / C
Tanto tiempo sin pensar
Dm
Si esto sigue así
Gm           C  ...
Pronto todo acabara.



Bb                 C
A veces la vida es así
Am                           Dm
Nos trata mal y nos obliga a mentir
Bb
Pero si nos pasa
C
Todo a la mierda

CORO
Dm      Gm
Porque Doctor
           C           Am
Se va su vida sin una razón
Dm
Trato de entender
      Gm              C ... C#
Y no encuentro una explicación
Dm      Gm
Quizás morir
            C                 Am
Es un gran sueño que no tiene fin
Dm
O será otro paso
Gm              C  ... C#
Para volver a vivir

Bb                 C
A veces la vida es así
Am                           Dm
Nos trata mal y nos obliga a mentir
Bb
Pero si nos pasa
C
Todo a la mierda… auh

Solo:
E|----------------------------------------------------------------|
B|----------------------------------------------------------------|
G|-10-9-7-5--3-2~-0--9-7-5-5--3-2~---------5--7-5-3--3-2--3--5--7-|
D|--------------------------------3-5-7--3------------------------|
A|----------------------------------------------------------------|
E|----------------------------------------------------------------|

E|-------------------------------------------------------------------|
B|--------------------------------------------------------------6--5-|
G|-10-9-7-5--3-2~-0--9-7-5-5--3-2~---------5--7-5-3--3-2--3--5-------|
D|--------------------------------3-5-7--3---------------------------|
A|-------------------------------------------------------------------|
E|-------------------------------------------------------------------|

el solo final la dejo como la transcripcion anterior...buena suerteee =D
( cualkier cosa a [email protected])





Calificar esta versión:
Aviso: Este fichero es trabajo propio de su transcriptor y representa su interpretación personal de la canción. El material contenido en esta página es para exclusivo uso privado, por lo que se prohibe su reproducción o retransmisión, así como su uso para fines comerciales.
Más versiones de Brasil, Tronic
Brasil
acordes
Brasil (ver 2)
acordes
Brasil
tablatura
Brasil (ver 2)
tablatura
Brasil (ver 3)
tablatura
Brasil
bajo
Descubre más canciones de Tronic