Brasil, Tronic (acordes)

Autor: chiino | 23876 visualizaciones



aki una cancion en donde me hace acordar de mi amor. =D=D  ke la disfruten.!!

  Dm     Gm      C     Am     Dm?    A#     A#?
 e: 5   e: 3   e: 3   e: 5   e: 6   e: 6   e: 6
 b: 6   b: 3   b: 5   b: 5   b: 5   b: 6   b: 6
 g: 7   g: 3   g: 5   g: 5   g: 7   g: 7   g: 9
 d: 7   d: 5   d: 5   d: 7   d: 7   d: 8   d: 8
 a: 5   a: 5   a: 3   a: 7   a: 5   a: 8   a: 8
 e: 5   e: 3   e: 3   e: 5   e: 5   e: 6   e: 6

C(P) : punteo seguido en las primeras dos cuerdas.
  \  : deslizar hacia abajo.
  /  : tocar las notas de alrededor en un solo tono.
(4T) : esperar cuatro tiempos antes de seguir tocando.

En el coro, la segunda guitarra toca lo siguiente(dos veces):

e:-x--------x---------x--------x--x---------x--------x--------
b:-10-------11--------13-------11-10--------13-------11-------
g:-x--(x8)--x--(x13)--x--(x3)--x--x--(x12)--x--(x4)--x--(x20)-
d:-7--------8---------10-------8--7---------10-------8--------
a:-x--------x---------x--------x--x---------x--------x--------
e:-x--------x---------x--------x--x---------x--------x--------

En el ultimo coro toca lo mismo pero despues se le agrega lo siguiente cuando se repite el pre-coro pero en el coro(:S):

e:------x--------x-------------x-------0-x-------
b:------11-------10------------11------0-11------
g:-(4T)-x--(x8)--x--(x6)--(4T)-x--(x7)-0-x--(x5)-
d:------8--------7-------------8-------0-8-------
a:------x--------x-------------x-------0-x-------
e:------x--------x-------------x-------0-x-------


INTRO: Dm - Gm - C -Am
       Dm - Gm - C - C

e:------------------------------------8-------------------
b:------------------------------10(x5)-10-11--11(x4)-10-8-
g:10\-----------7-10-10-9---------------------------------
d:----7-8\--7/8----------5-7\-----------------------------
a:--------------------------------------------------------
e:--------------------------------------------------------


 Dm                      Gm
Carla quiere ir a brasil

      C                          Dm?-Am
Priscila quiere estar en New York

     Dm                   Gm                 C
bailan por las noches para sus sueños cumplir


 Dm                       Gm
Pedro trabaja hasta morir 

  
      C                       Dm?-Am
porque quiere una familia feliz

    Dm                    Gm               C(P) 
pero su señora lo engaña con su tio Martin


Pre-Coro:
 
    A#                  A#?
A veces la vida es asi

           Am                      Dm-Am
nos trata mal y nos obliga a mentir

    A#               A#?            
pero si nos pasa todo a la mierda!


Coro:

    Dm          A#
Porque Doctor 

                       A#?-Am
se va su vida sin una razon

               A#?-A#                          A#-A#?
trato de entender y no encuentro la explicacion

     Dm         A#
Quizas morir 

                             A#?-Am
es un gran sueño que no tiene fin

               A#?-A#               A#
o sera otro paso para volver a vivir



  Dm                   Gm
Tanto tiempo sin dormir

 C                      Dm?-Am
tanto tiempo sin pensar

     Dm              Gm               C(P)
si esto sigue asi pronto todo acabara


Pre-Coro

    A#                  A#?
A veces la vida es asi

           Am                      Dm-Am
nos trata mal y nos obliga a mentir


    A#               A#?            
pero si nos pasa todo a la mierda!


Coro:

   Dm          A#
Porque Doctor 

                       A#?-Am
se va su vida sin una razon

               A#?-A#                          A#-A#?
trato de entender y no encuentro la explicacion

     Dm         A#
Quizas morir 

                             A#?-Am
es un gran sueño que no tiene fin

               A#?-A#               A#
o sera otro paso para volver a vivir


   A#                  A#?
A veces la vida es asi

           Am                      Dm-Am
nos trata mal y nos obliga a mentir

    A#               A#?            
pero si nos pasa todo a la mierda!


Solo:(se acompaña el solo con los siguientes acordes)

Dm - Gm - C - Dm?-Am - Dm - Gm - C - C
Dm - Gm - C - Dm?-Am - Dm - Gm - C - C - Dm

e:--------------------------------------------------------------
b:--------------------------------------------------------------
g:-10-9-7-7-------9-7----------------------7----------------9---
d:---------10-8-7-----10-10-8-7---5-7---10---10--8--8-7-8-10----
a:-------------------------------8-----8------------------------
e:--------------------------------------------------------------

e:--------------------------------------------------------------
b:--------------------------------------------------------------
g:10-9-7-7--------9-7----------------------7----------------10-9
d:--------10-8-7------10-10-8-7---5-7---10---10--8--8-7-8-10----
a:-------------------------------8-----8------------------------
e:--------------------------------------------------------------


bueno ojala que les guste la cancion = como me gusto a mi.  y para mi gusto esta perfe.!!.  no tanto, pero bien parecida.
saludo pa todos. y en especial para mi mueñkita. =D
si hay algun error solo verifiquen las notas de arriba .. porque una de esas sera el error.:S.:P..
disfrutenla!!!





Calificar esta versión:
Aviso: Este fichero es trabajo propio de su transcriptor y representa su interpretación personal de la canción. El material contenido en esta página es para exclusivo uso privado, por lo que se prohibe su reproducción o retransmisión, así como su uso para fines comerciales.
Más versiones de Brasil, Tronic
Brasil
acordes
Brasil (ver 2)
acordes
Brasil
tablatura
Brasil (ver 2)
tablatura
Brasil (ver 3)
tablatura
Brasil
bajo
Descubre más canciones de Tronic