Pienso En Ti, Tremolo (tablatura) (ver 3)

Autor: Anónimo | 26076 visualizaciones



el arpegio de esta cancion lo pueden hacer con la notas de 
las demas transcripciones.

intermedio:
e-----------------------2--------------
b-2-4-2---4-2-1-2---2-4----------------
g-----------4--------------------------

en la parte final:

e------------------------------------------------------
b-4-5/7--9br8-9--9/7-7/6-2/4-4-------------------------
g---------------------------------------------6-7-9b-7-
d------------------------------5h6-4--4-5-6/8----------
a---------------11/9-9/8-4/6-6-------------------------
E------------------------------------------------------

e-9-6h7p6-----------------------------------------------------
b---------7-9-8-7--9b-9b-9br7-9--7h9p7--7-6-7-6-7/9/7-6-7-6---
g----------------------------------------------------------8--


e------------------------------------------------------
b-9/7-7-6---------------------------------------------------
g-----------6-8-6v--6--8h6----------------------------------------
d---------8----------------8-6-6b----------------------------
a11/9-9-8-------------------------9b-----------------------------

e---------------9-6-7-6-----------------------------------
b-7-9p7--7-9p7--9-6-7-6-9-7-9br--7-9p7--7-9-7h9p7---------------------------------

esta es la primera transcripción que envío estoy casi 100% seguro de que esta biën.
tremolo es una super banda metal; esto es una demostración de que en el peru hay talento.

saludos para la gente de buenos aires ,sjl. en especial para cinthya.





Calificar esta versión:
Aviso: Este fichero es trabajo propio de su transcriptor y representa su interpretación personal de la canción. El material contenido en esta página es para exclusivo uso privado, por lo que se prohibe su reproducción o retransmisión, así como su uso para fines comerciales.
Más versiones de Pienso En Ti, Tremolo
Pienso En Ti
acordes
Pienso En Ti (ver 2)
acordes
Pienso En Ti
tablatura
Pienso En Ti (ver 2)
tablatura
Pienso En Ti (ver 3)
tablatura
Descubre más canciones de Tremolo