Pienso En Ti, Tremolo (tablatura)

Autor: Anónimo | 35880 visualizaciones



ESTA CANCION ES UNA DE LAS MEJORES QUE YO HE ESCUCHADO DE TREMOLO
GRAN BANDA PERUANA, QUE TRATA DE NO HACERSE PALTAS CON RATA BLANCA
ACA LO MANDO MAS COMPLETO QUE LOS DEMAS Y ESPERO QUE LES GUSTE
Y SI TIENEN DUDAS O ALGUN COMENTARIO ESCRIBAN NAMAS

RECOMENDACIONES:
PORFAVOR PROCURAR NO TENER CERCA NADA PUNSANTE CUANDO ESCUCHES ESTA ROLA
ESPECIALMENTE SI ESTAS CON LA DEPRE POR CULPA DE TU SUCURSAL, JEJE
¡¡¡AHI VA!!!

TITULO:        Pienso en Ti
GRUPO O ARTISTA: Tremolo (Tacna-Peru)
TRANSCRITO POR:       Juan Pablo Condezo Diaz [[email protected]]
FECHA:              Viernes, 1 de Octubre del 2004
PROCEDENCIA:        Huancavelica - Peru

                           ACORDES USALDOS EN ESTA ROLA
                          ==============================

   CM7        Bm           D          Em
======/   =====x/    =====x/    ======/
 ||||||     ||||||      ||||||      ||||||
 ||o|||     |oooo|      |||o||      |oo|||
 oo||||     ||||o|      ||||o|      ||||||
 ||||||     ||oo||      ||||||      ||||||

  CM7         Bm           D          Em
e|-x--      e|-x--      e|-x--      e|-0--
b|-0--      b|-3--      b|-3--      b|-0--
g|-0--      g|-4--      g|-2--      g|-0--
D|-2--      D|-4--      D|-0--      D|-2--
A|-3--      A|-2--      A|-0--      A|-2--
E|-3--      E|-x--      E|----      E|-0--

Afinacion:     Eb Bb Gb Db Ab Eb    (1/2 tono menos)

Explicacion de la TABLATURA
                          ( )=  gost note
                           h=   hammer on
                           p=   pull-off
                           /=   slide up
                           =   slide down
                           ^=   bend
                           B=   bend half
                           br^= bend´n release
                        V ó ~ =  vibrato



                        PIENSO EN TI
                         (Tremolo)

      INTRO:

           CM7            D             Bm            Em
      e|----------------------------------------------------0--------|
      b|----0------0------3------3------3------3------0-------0------|
      g|------0------0-------2-----2------4------4------0--0----0----|
      D|--------2------2--0----0-----0------4------4------2----------|
      A|----3---------------------------2----------------------------|
      E|----------------------------------------------0-----------0--|
          |               [0:02]                                        |
      e|-------------------------------------------------------------|
      b|--------------------------------------7h9--7-----------------|
      g|-------------------------7s9-7--------7----7---7-9-----------|
      D|-------------------------7s9-7--------------------------7h9--|
      A|-------------------------------------------------------------|
      E|-------------------------------------------------------------|

             CM7            D             Bm            Em
         |(0:07)                                                       |
      e|-------------------------------------------------------------|
      b|-----------------------------------7h8-(7)p5--3-/5~----------|
      g|-------------------------------------------------------------|
      D|--5-7-5-7-5-7br----------------------------------------------|
      A|-------------------------------------------------------------|
      E|-------------------------------------------------------------|
                                                                 (0:13)

     CM7           D           Bm            Em
        Te conocí viernes, el sábado solo pensaba en ti
     CM7           D             Bm            Em
        Y la luna llena me advirtió de enamorarse así,
     CM7           D        Bm            Em
        Pero el tabaco, me dijo vive el momento sí
     CM7                 D         Bm         Em
      Mas no falto el trago, para desearme buena suerte.

       CM7                   D           Bm                Em
     Y voy directo a conquistarte aunque se que puedes despreciarme
       CM7                  D       Bm                Em
     Es como entrar en un rodeo, sabiendo que tu eres ciego

      Coro:
     CM7        D         Bm               Em
     Pienso en ti, cada vez que no estás aquí
     CM7     D        Bm               Em
     Lloro así, cada vez que me embriago así


            CM7           D             Bm            Em
      e|-----------------------------------------------3~------------|
      b|----3-5-3---------------3h5p3/2-3~---------3-5---------------|
      g|-------------------------------------------------------------|
      D|-------------------------------------------------------------|
      A|-------------------------------------------------------------|
      E|(1:10)-------------------------------------------------------|
                                                                 (1:17)

     CM7           D        Bm                Em
      Sin lastimarte quisiera acercarme un poco mas
     CM7           D            Bm            Em
      Y con tu permiso, bordear con mi mano tu figura
     CM7           D            Bm            Em
      Robarte un beso, y sellar con eso nuestro amor,
     CM7             D        Bm               Em
      No se que siento, que no quiero que todo sea un sueño

        CM7                     D           Bm            Em
     Y voy directo a conquistarte aunque se que puedes despreciarme
        CM7                  D         Bm              Em
     Es como entrar en un rodeo, sabiendo que tu eres ciego

      Coro:

      CM7       D         Bm               Em
     Pienso en ti, cada vez que no estás aquí
       CM7   D        Bm                  Em
     Lloro así, cada vez que me embriago así

       CM7         D        Bm                 Em
     Pieeeenso en ti, cada vez que no estás aquí
     CM7        D        Bm                Em
     Llooooro así, cada vez que me embriago así


      FINAL:
            CM7           D             Bm            Em
      e|-------------------------------------------------------------|
      b|-/5-/8-------10b8s12h10--------10/8----/7--3/-5--------------|
      g|-------------------------------------------------------------|
      D|--------------------------------------------------5h7-5------|
      A|-------------------------------12/10---/9--5/-7--------------|
      E|(2:27)-------------------------------------------------------|

            CM7            D            Bm            Em
      e|------------------------------10br^---------7h8p7-7----------|
      b|-------------------8-10-8---------------------------10--8----|
      g|-----------4-4h7-4-------------------------------------------|
      D|-------5-7---------------------------------------------------|
      A|----5h7------------------------------------------------------|
      E|(2:35)-------------------------------------------------------|

            CM7           D             Bm            Em
      e|-------------------------------------------------------------|
      b|-8-11b-11b-11br-8-10---------8h10p8-8--7-8-7-8/10-8-7-8-7----|
      g|----------------------------------------------------------9--|
      D|-------------------------------------------------------------|
      A|-------------------------------------------------------------|
      E|(2:42)-------------------------------------------------------|

            CM7           D             Bm            Em
      e|-------------------------------------------------------------|
      b|--------10/8---7---------------------------------------------|
      g|---------------------7-9-7v----------7--9h7------------------|
      D|-------------------9------------------------9-7--7b----------|
      A|--------12/10--9-----------------------------------10b-------|
      E|(2:49)-------------------------------------------------------|

            CM7           D             Bm            Em
      e|----------------------------------10-7-8-7-------------------|
      b|------8-10p8---------8-10p8-------10-7-8-7-10-8-10br---------|
      g|-------------------------------------------------------------|
      D|-------------------------------------------------------------|
      A|-------------------------------------------------------------|
      E|(2:56)-------------------------------------------------------|

            CM7           D             Bm            Em
        e|-------------------------------------------------------------|
      b|------8v~-10p8-----8-10-8h10p8-----8h7p8---------------------|
      g|-----------------------------------------7h9-9~--------------|
      D|-------------------------------------------------------------|
      A|-------------------------------------------------------------|
      E|(3:03)------------------------------------------------(3:10)-|
                                                                  fin

OE LOCAZO LA ULTIMA PARTE, LA MERA VERDAD TOMA BASTANTE TIEMPO SACARLA Y ESO QUE ES SIMPLE
BUENO SI TIENEN DUDAS, QUEJAS, MENTADAS DE MADRE O ALGUNA OTRA CUESTION MANDEN UN EMAIL
NAAAADA MAAAA (COMO DICE MI PATA CHARLES)

Y UN SALUDO PA TODA LA GENTITA DE HUANCAVELICA
A KATTY, VANIA, LISSETH, BRENDA, LINETH
A MI PATA CRISTHIAN, VICO, BRUCE, OLIVER, ROGER, A MI PATAZA ADRIAN
EN ICA A MARIELLA, YULI. KARLA Y PAUL DE MI PROMO
A CHARLES, OSCAR, RONALD, TATA, LG Y DANIEL DE LA FACU DE FISICA EN LA U.N.ICA


                      ¡¡¡¡¡¡¡¡¡¡Y QUE VIVA EL ROOOOOOOOOCK!!!!!!!!!

                                                                      __
                                                                    +|oo|+
                                                                    +|oo|+
_  _  _  _  _  _  _  _ _  _  _  _  _  _  _             ||
                                                                      ||
_____   _____   _____    _____                    ||
     _       _      _   _            _        _                 ||
      _       _     _    _            _        _                ||
       _       ____     _            _        _               ||
        _       _           _            _       _               ||
         _       _           _            _      _            _  ||  _
  _____       _           _____    ____             _||_//
                                                                    | [] |
  _  _  _  _  _  _  _   _  _  _  _  _  _  _  _       | || |
                                                                   / _[]_ 
                                                                   ______/





Calificar esta versión:
Aviso: Este fichero es trabajo propio de su transcriptor y representa su interpretación personal de la canción. El material contenido en esta página es para exclusivo uso privado, por lo que se prohibe su reproducción o retransmisión, así como su uso para fines comerciales.
Más versiones de Pienso En Ti, Tremolo
Pienso En Ti
acordes
Pienso En Ti (ver 2)
acordes
Pienso En Ti
tablatura
Pienso En Ti (ver 2)
tablatura
Pienso En Ti (ver 3)
tablatura
Descubre más canciones de Tremolo