Pienso En Ti, Tremolo (tablatura) (ver 2)

Autor: Anónimo | 40659 visualizaciones



Hola soy David soy de Tacna y aquí les tengo esta canción de 
tremolo es una baladita que gusta a todos . si alguien lo saco 
mejor no duden en mandármelo a mi correo [email protected]  
ok y que viva el rock tacneño en especial la banda SUBVERSIÓN  . 

Esta canción no es muy tranca solo hay que practicarla  espero que la manyen 
   El intro es así:
Comienza con DO pero quítenle un dedo  ok  
El arpegio es así:


         C                     D                 Bm                     Em 
E------------------------------------------------------------0-------0--------------
B------0------0--------3------3--------3-------3----------------------------------
G---------0-----0---------2-----2---------4------4-----------0-------0-----------
D-----------2-----2---------0-----0---------4------4-----------2-------2---------
A------3---------------0----------------2------------------------------------------
E------------------------------------------------------------0-----------------------
Y después comienza cantando pero en realidad esa es toda la canción asi de simple

Te conocí  el viernes y el sábado solo pensaba en ti bla bla bla la letra ustedes lo copian 
         C                     D                 Bm                     Em 
E------------------------------------------------------------0-------0--------------
B------0------0--------3------3--------3-------3----------------------------------
G---------0-----0---------2-----2---------4------4-----------0-------0-----------
D-----------2-----2---------0-----0---------4------4-----------2-------2---------
A------3---------------0----------------2------------------------------------------
E------------------------------------------------------------0-----------------------



 Sugerencias y pedidos musicales por favor escríbanme a mi correo [email protected]  
ok y que viva el rock tacneño carajooooooooooo





Calificar esta versión:
Aviso: Este fichero es trabajo propio de su transcriptor y representa su interpretación personal de la canción. El material contenido en esta página es para exclusivo uso privado, por lo que se prohibe su reproducción o retransmisión, así como su uso para fines comerciales.
Más versiones de Pienso En Ti, Tremolo
Pienso En Ti
acordes
Pienso En Ti (ver 2)
acordes
Pienso En Ti
tablatura
Pienso En Ti (ver 2)
tablatura
Pienso En Ti (ver 3)
tablatura
Descubre más canciones de Tremolo