Every Breath You Take, The Police (tablatura) (ver 4)

Autor: jasc96 | 40445 visualizaciones



----------------------------
----------------------------
-----------4----------------
-------7-------7------------
-----5---5---5---5----------
---3------------------------


----------------------------
----------------------------
-----------2----------------
-------5-------5------------
-----3---3---3---3----------
---1------------------------


----------------------------
----------------------------
-------12-9-----------------
-----9------9---9-----------
---9----------9-------------
----------------------------

se ocupa escucharla te recomiendo verla en alguna parte como ejemplo youtube i tener agilidad en los dedos





Calificar esta versión:
Aviso: Este fichero es trabajo propio de su transcriptor y representa su interpretación personal de la canción. El material contenido en esta página es para exclusivo uso privado, por lo que se prohibe su reproducción o retransmisión, así como su uso para fines comerciales.
Más versiones de Every Breath You Take, The Police
Every Breath You Take
tablatura
Every Breath You Take (ver 2)
tablatura
Every Breath You Take (ver 3)
tablatura
Every Breath You Take (ver 4)
tablatura
Every Breath You Take (ver 5)
tablatura
Every Breath You Take (ver 6)
tablatura
Every Breath You Take
bajo
Every Breath You Take
bateria
Every Breath You Take
armonica
Descubre más canciones de The Police