Every Breath You Take, The Police (tablatura) (ver 3)

Autor: RAUL ERNESTO | 31486 visualizaciones



The police (Every breath you take)

VIVA NICARAGUA 

TE AMO "CARLA VANESSA DAVILA"
ESOS HOJOS VERDES Y TUS LABIOS DE PLATA SOY UN ADICTO

CUALQUIER CORRECCION ESCRIBEME [email protected]

SI LO PRACTICAS AGARRAS VELOCIDAD
EL TIEMPO DE TODAS LAS NOTAS ES UNA CORCHEA

e|--------------------------------------------------------------
B|--------------------------------------------------------------
G|---------6------------------6------------------2--------------
D|-----9-----9---9--------9-----9---9--------6-----6---6--------
A|---7---7-----7--------7---7-----7--------4---4-----4----------
E|-5------------------5------------------2----------------------

e|--------------------------------------------------------------
B|--------------------------------------------------------------
G|---------2----------------9---7----------------11----9------9-
D|-----6-----6---6--------7-------7---7--------9---------9------
A|---4---4-----4--------5-----5-----5--------7-------7-----7----
E|-2------------------------------------------------------------

e|-----------------------------------------------------------
B|-----------------------------------------------------------
G|---------6----------------------6------------------------
D|-----9-----9---9------------9-----9---9-----------------
A|---7---7-----7------------7---7-----7----------------------
E|-5---------------------5----------------------------------





Comentarios del colaborador: NINGUNO

Calificar esta versión:
Aviso: Este fichero es trabajo propio de su transcriptor y representa su interpretación personal de la canción. El material contenido en esta página es para exclusivo uso privado, por lo que se prohibe su reproducción o retransmisión, así como su uso para fines comerciales.
Más versiones de Every Breath You Take, The Police
Every Breath You Take
tablatura
Every Breath You Take (ver 2)
tablatura
Every Breath You Take (ver 3)
tablatura
Every Breath You Take (ver 4)
tablatura
Every Breath You Take (ver 5)
tablatura
Every Breath You Take (ver 6)
tablatura
Every Breath You Take
bajo
Every Breath You Take
bateria
Every Breath You Take
armonica
Descubre más canciones de The Police