Every Breath You Take, The Police (tablatura) (ver 2)

Autor: DEINET91 | 44958 visualizaciones



ESTA ES LA CANCION ORIGINAL NO COMO LAS TONTERIAS QUE PONEN ALGUNOS:


E|--------------|.. |---------------|..|--------------|---------------| |---------------|
B|--------------|.. |---------------|..|--------------|---------------| |---------------|
G|--------5-----|.. |-------1-------|..|-----8—-6-----|----10--8------| |-------1-------|
D|-----8----8-8-|.. |----5----5---5-|..|---6------6--6|--8------8---8-| |----5----5---5-|
A|---6--6----6--|.. |--3---3----3---|..|-4----------4-|-6---------6---| |--3---3----3---|
E|-4------------|x2 |-1-------------|x2|--------------|---------------| |-1-------------|x2 


E|--------------|.. |---------------|..|--------------|---------------| |--------------|
B|--------------|.. |---------------|..|--------------|---------------| |--------------|
G|--------5-----|.. |-------1-------|..|-----8—-6-----|----10--8------| |--------5-----|
D|-----8----8-8-|.. |----5----5---5-|..|---6------6--6|--8------8---8-| |-----8----8-8-|
A|---6--6----6--|.. |--3---3----3---|..|-4----------4-|-6---------6---| |---6--6----6--|
E|-4------------|x2 |-1-------------|x2|--------------|---------------| |-4------------|x2 


E|--------------|.. |--------------|---------------| |--------------|.. |---------------|.. |---------------|
B|--------------|.. |--------------|---------------| |--------------|.. |---------------|.. |---------------|
G|--------5-----|.. |-----8—-6-----|-----6—-4------| |--------5-----|.. |-------7-------|.. |----10--8------|
D|-----8----8-8-|.. |---6------6--6|---6------6--6-| |-----8----8-8-|.. |----10--10---10|.. |--8------8---8-|
A|---6--6----6--|.. |-4----------4-|-4-------------| |---6--6----6--|.. |--8---8----8---|.. |-6---------6---|
E|-4------------|x2 |--------------|---------------| |-4------------|x2 |-6-------------|x2 |---------------| 

ESTA UN POCO DESORDENADA PERO EN EL OFFICE SE PUEDE ARREGLAR






Comentarios del colaborador: http://farhatguitar.com/the-police_29/every-breath-you-take_74/part_427

Calificar esta versión:
Aviso: Este fichero es trabajo propio de su transcriptor y representa su interpretación personal de la canción. El material contenido en esta página es para exclusivo uso privado, por lo que se prohibe su reproducción o retransmisión, así como su uso para fines comerciales.
Más versiones de Every Breath You Take, The Police
Every Breath You Take
tablatura
Every Breath You Take (ver 2)
tablatura
Every Breath You Take (ver 3)
tablatura
Every Breath You Take (ver 4)
tablatura
Every Breath You Take (ver 5)
tablatura
Every Breath You Take (ver 6)
tablatura
Every Breath You Take
bajo
Every Breath You Take
bateria
Every Breath You Take
armonica
Descubre más canciones de The Police