Chop Suey, System Of A Down (tablatura) (ver 4)

Autor: metalera95 | 30255 visualizaciones



Intro
Riff 1
E|------------------------|-----------------------| 
B|0--0-0-0-0--0-0-0-0--0-0|-----------------------| 
G|4--4-4-4-4--4-4-4-4--4-4|4/6---6-6-6-6--6-6-6-6-| 
D|6--6-6-6-6--6-6-6-6--6-6|6/8---8-8-8-8--8-8-8-8-| 
A|------------------------|-----------------------| 
E|------------------------|-----------------------| 


E|--------------------|-------------------| 
B|--------------------|-------------------| 
G|3--3-3-3-3--3-3-3-3-|1--1-1-1-1--1-1-1-1| 
D|4--4-4-4-4--4-4-4-4-|2--2-2-2-2--2-2-2-2| 
A|--------------------|-------------------| 
E|--------------------|-------------------| 

Riff 2
E|-----------|-----------|-----------|-----------| 
B|-----------|-----------|-----------|-----------| 
G|4---4---4--|6---6---6--|3---3---3--|1---1---1--| 
D|--6---6---6|--8---8---8|--4---4---4|--2---2---2| 
A|-----------|-----------|-----------|-----------| 
E|-----------|-----------|-----------|-----------| 


Riff 3          Play 2 Times
E|-/11-|/12-|/9--|/14-|/11-|/12-|/9--|/14-| 
B|-/12-|/14-|/11-|/16-|/12-|/14-|/11-|/16-| 
G|-----|----|----|----|----|----|----|----| 
D|-----|----|----|----|----|----|----|----| 
A|-----|----|----|----|----|----|----|----| 
E|-----|----|----|----|----|----|----|----| 
Riff 3 strum each chord 16 times every measure 

Riff 4         Play 3 Times Then Play The low E 2 times 
E|---------------|---------------|---------------|-----------------------| 
B|---------------|---------------|---------------|-----------------------| 
G|---------------|---------------|---------------|-----------------------| 
D|---------------|---------------|---------------|-----------------------| 
A|6-6-6-6-6-6-6-6|5-5-5-5-5-5-5-5|8-8-8-8-8-8-8-8|11-11-11-11-11-11-11-11| 
E|4-4-4-4-4-4-4-4|3-3-3-3-3-3-3-3|6-6-6-6-6-6-6-6|9--9--9--9--9--9--9--9-| 
 
Riff 5         Play 2 Times
E|----------------------------------------------------------|
B|----------------------------------------------------------|
G|----------------------------------------------------------|
D|----------------------------------------------------------|
A|66---66666666/55---55555555/66---66666666/55---55555555/66|
E|44---44444444/33---33333333/44---44444444/33---33333333/44|



Riff 3       Play 2 Times
E|-/11-|/12-|/9--|/14-|/11-|/12-|/9--|/14-| 
B|-/12-|/14-|/11-|/16-|/12-|/14-|/11-|/16-| 
G|-----|----|----|----|----|----|----|----| 
D|-----|----|----|----|----|----|----|----| 
A|-----|----|----|----|----|----|----|----| 
E|-----|----|----|----|----|----|----|----| 
Riff 3 strum each chord 16 times every measure 


Riff 4         Play 2 Times
E|---------------|---------------|---------------|-----------------------| 
B|---------------|---------------|---------------|-----------------------| 
G|---------------|---------------|---------------|-----------------------| 
D|---------------|---------------|---------------|-----------------------| 
A|6-6-6-6-6-6-6-6|5-5-5-5-5-5-5-5|8-8-8-8-8-8-8-8|11-11-11-11-11-11-11-11| 
E|4-4-4-4-4-4-4-4|3-3-3-3-3-3-3-3|6-6-6-6-6-6-6-6|9--9--9--9--9--9--9--9-| 


Riff 5         Play 2 Times
E|------------------------------------------------------------------------|
B|------------------------------------------------------------------------|
G|------------------------------------------------------------------------|
D|------------------------------------------------------------------------|
A|6666666666666666---66666666/55---55555555/66---66666666/55---55555555/66|
E|4444444444444444---44444444/33---33333333/44---44444444/33---33333333/44|



Riff 3       Play 4 Times
E|-/11-|/12-|/9--|/14-|/11-|/12-|/9--|/14-| 
B|-/12-|/14-|/11-|/16-|/12-|/14-|/11-|/16-| 
G|-----|----|----|----|----|----|----|----| 
D|-----|----|----|----|----|----|----|----| 
A|-----|----|----|----|----|----|----|----| 
E|-----|----|----|----|----|----|----|----| 
Riff 3 strum each chord 16 times every measure 



Riff 4  Play 2 Times Then Palm Mute 2 Times Then Play The low E 2 Times
E|---------------|---------------|---------------|-----------------------| 
B|---------------|---------------|---------------|-----------------------| 
G|---------------|---------------|---------------|-----------------------| 
D|---------------|---------------|---------------|-----------------------| 
A|6-6-6-6-6-6-6-6|5-5-5-5-5-5-5-5|8-8-8-8-8-8-8-8|11-11-11-11-11-11-11-11| 
E|4-4-4-4-4-4-4-4|3-3-3-3-3-3-3-3|6-6-6-6-6-6-6-6|9--9--9--9--9--9--9--9-| 

   Repeat till the song ends
E|--------|--------|--------|--------|
B|--------|--------|--------|--------|
G|--------|--------|--------|--------|
D|--------|--------|-4------|--------|
A|-6------|-2------|-2------|-2------|
E|-4------|-0------|--------|-0------|


Lyrics: 

Wake up, 
Grab a brush and put a little (makeup), 
Hide the scars to fade away the (shakeup), 
Why'd you leave the keys upon the table? 
Here you go create another fable 

You wanted to, 
Grab a brush and put a little makeup, 
You wanted to, 
Hide the scars to fade away the shakeup, 
You wanted to, 
Why'd you leave the keys upon the table, 
You wanted to, 

I don't think you trust, 
In, my, self righteous suicide, 
I, cry, when angels deserve to die, Die, 

Wake up, 
Grab a brush and put a little (makeup), 
Hide the scars to fade away the (shakeup) 
Hide the scars to fade away the, 
Why'd you leave the keys upon the table? 
Here you go create another fable 

You wanted to, 
Grab a brush and put a little makeup, 
You wanted to, 
Hide the scars to fade away the shakeup, 
You wanted to, 
Why'd you leave the keys upon the table, 
You wanted to, 

I don't think you trust, 
In, my, self righteous suicide, 
I, cry, when angels deserve to die 
In my, self righteous suicide, 
I, cry, when angels deserve to die 

Father, Father, Father, Father, 
Father/ Into your hands/I/commend my spirit, 
Father, into your hands, 

Why have you forsaken me, 
In your eyes forsaken me, 
In your thoughts forsaken me, 
In your heart forsaken, me oh, 

Trust in my self righteous suicide, 
I, cry, when angels deserve to die, 
In my self righteous suicide, 
I, cry, when angels deserve to die. 

The End





Comentarios del colaborador: http://www.tabsolutely.com/es/tabs/s/system-of-a-down/chop-suey-13183.html

Calificar esta versión:
Aviso: Este fichero es trabajo propio de su transcriptor y representa su interpretación personal de la canción. El material contenido en esta página es para exclusivo uso privado, por lo que se prohibe su reproducción o retransmisión, así como su uso para fines comerciales.
Más versiones de Chop Suey, System Of A Down
Chop Suey
tablatura
Chop Suey (ver 2)
tablatura
Chop Suey (ver 3)
tablatura
Chop Suey (ver 4)
tablatura
Chop Suey (ver 5)
tablatura
Chop Suey
bajo
Descubre más canciones de System Of A Down