Chop Suey, System Of A Down (tablatura) (ver 3)

Autor: nirvanerodemiercoles | 20551 visualizaciones



Introdução:
D|-------------------|------------------------|
A|-------------------|------------------------|
F|5--5-5-5-5--5-5-5-5|5/7--7--7-7-7-7--7-7-7-7|
C|7--7-7-7-7--7-7-7-7|7/9--9--9-9-9-9--9-9-9-9|
G|0--0-0-0-0--0-0-0-0|0-0--0--0-0-0-0--0-0-0-0|
C|-------------------|------------------------|

D|-------------------|---------------------|
A|-------------------|---------------------|
F|4--4-4-4-4--4-4-4-4|4/2--2-2-2-2--2-2-2-2|
C|5--5-5-5-5--5-5-5-5|5/3--3-3-3-3--3-3-3-3|
G|0--0-0-0-0--0-0-0-0|0-0--0-0-0-0--0-0-0-0|
C|-------------------|---------------------|

Riff A
D|-----------|-----------|-----------|-----------|
A|-----------|-----------|-----------|-----------|
F|5---5---5--|7---7---7--|4---4---4--|2---2---2--|
C|--7---7---7|--9---9---9|--5---5---5|--3---3---3|
G|-----------|-----------|-----------|-----------|
C|-----------|-----------|-----------|-----------|

Riff B
D|-8-|10-|7-|12-|12-|13-|10-|13-|
A|10-|12-|8-|13-|13-|15-|12-|15-|
F|---|---|--|---|---|---|---|---|
C|---|---|--|---|---|---|---|---|
G|---|---|--|---|---|---|---|---|
C|---|---|--|---|---|---|---|---|

Riff C
D|-----|-----|------|-------|
A|-----|-----|------|-------|
F|-----|-----|------|-------|
C|7h8*-|6h7*-|9h10*-|11h12*-|
G|7h8*-|6h7*-|9h10*-|11h12*-|  
C|7h8*-|6h7*-|9h10*-|11h12*-|

Riff D
D|---|---|---|----|
A|---|---|---|----|
F|---|---|---|----|
C|---|---|---|----|
G|---|---|---|----|
C|7*-|6*-|9*-|12*-|

Riff E
D|--------------------|---------------------|
A|--------------------|---------------------|
F|--------------------|---------------------|
C|7h8--7h8-7h8-7h8-7h8|-6h7--6h7-6h7-6h7-6h7|
G|7h8--7h8-7h8-7h8-7h8|-6h7--6h7-6h7-6h7-6h7|
C|7h8--7h8-7h8-7h8-7h8|-6h7--6h7-6h7-6h7-6h7|

Riff F
D|-8*-|10*-|7*-|12*-|8*-|10*-|7*-|5*-|
A|10*-|12*-|8*-|13*-|10*-|12*-|8*-|6*-|
F|----|----|--------|----|----|---|---|
C|----|----|--------|----|----|---|---|
G|----|----|--------|----|----|---|---|
C|----|----|--------|----|----|---|---|

Riff G
D|---------------|
A|---------------|
F|---------------|
C|7-7-7-7-7-7-7-7|
G|7-7-7-7-7-7-7-7|
C|7-7-7-7-7-7-7-7|

Riff H
D|--------------------|
A|--------------------|
F|--------------------|
C|7---|3---|10---|3---|
G|7---|3---|10---|3---|
C|7---|3---|10---|3---|

Sequência de riff's
Introdução 1 x (uma vez)
Riff A 1 x (uma vez)
Riff B 1 x (uma vez)
Riff C 2 x (duas vezes)
Riff D 2 x (duas vezes)

Riff E 4 x (quatro vezes)
Riff A 2x (duas vezes)
Riff C 2 x (duas vezes)
Riff G 1 x (uma vez)

Riff E 4 x (quatro vezes)
Riff A 2 x (duas vezes)
Riff F 1 x ( uma vez)
Riff C 2 x (duas vezes)
Riff C 2 x (duas vezes) bem rápido 
Riff D 2 x (duas vezes)
Riff H 8 x (oito vezes)





Comentarios del colaborador: Quanto mais vocês treinarem, mais vocês entenderam e tocaram melhor esta música. Se vocês quiserem mandem suas sugestões e críticas para o meu e- mail: [email protected].

Calificar esta versión:
Aviso: Este fichero es trabajo propio de su transcriptor y representa su interpretación personal de la canción. El material contenido en esta página es para exclusivo uso privado, por lo que se prohibe su reproducción o retransmisión, así como su uso para fines comerciales.
Más versiones de Chop Suey, System Of A Down
Chop Suey
tablatura
Chop Suey (ver 2)
tablatura
Chop Suey (ver 3)
tablatura
Chop Suey (ver 4)
tablatura
Chop Suey (ver 5)
tablatura
Chop Suey
bajo
Descubre más canciones de System Of A Down