Chop Suey, System Of A Down (tablatura)

Autor: theoc | 47803 visualizaciones



Intro 
------------------------------------------------------------------------------||
------------------------------------------------------------------------------||
-5-5-5-5-5-5-5-5-5-5-5/7-7-7-7-7-7-7-7-7-7--4-4-4-4-4-4-4-4--2-2-2-2-2-2-2-2--||
-7-7-7-7-7-7-7-7-7-7-7/9-9-9-9-9-9-9-9-9-9--5-5-5-5-5-5-5-5--3-3-3-3-3-3-3-3--||
-0-0-0-0-0-0-0-0-0-0-0/0-0-0-0-0-0-0-0-0-0-—0-0-0-0-0-0-0-0—-0-0-0-0-0-0-0-0--||
------------------------------------------------------------------------------||

Intro 
|-------------------------------------------------------------------||
|-------------------------------------------------------------------||
|--5---5---5----7---7---7----4---4---4----2---2---2-----------------||
|----7---7---7----9---9---9----5---5---5----3---3---3---------------||
|-------------------------------------------------------------------||
|-------------------------------------------------------------------||

|---8*--|---8*--|--10*--|--7*--|--12*--|--12*--|--13*--|--10*--|--18*---||
|-------|--10*--|--12*--|--8*--|--13*--|--13*--|--15*--|--12*--|--17*---||
|-------|-------|-------|------|-------|-------|-------|-------|--------||
|-------|-------|-------|------|-------|-------|-------|-------|--------||
|-------|-------|-------|------|-------|-------|-------|-------|--------||
|-------|-------|-------|------|-------|-------|-------|-------|--------||

Pre-verse 
-------------------------------------------------------------------------------|
-------------------------------------------------------------------------------|
-------------------------------------------------------------------------------|
-8p7-8p7-8p7-8p7--7p6-7p6-7p6-7p6--10p9-10p9-10p9-10p9--12p11-12p11-12p11-12p11|
-8p7-8p7-8p7-8p7--7p6-7p6-7p6-7p6--10p9-10p9-10p9-10p9--12p11-12p11-12p11-12p11|
-8p7-8p7-8p7-8p7--7p6-7p6-7p6-7p6--10p9-10p9-10p9-10p9--12p11-12p11-12p11-12p11|

Pre-verse 
|------------------------------------------------------------------------------|
|------------------------------------------------------------------------------|
|------------------------------------------------------------------------------|
|------------------------------------------------------------------------------|
|------------------------------------------------------------------------------|
|--7-7-7-7-7-7-7-7--6-6-6-6-6-6-6-6--9-9-9-9-9-9-9-9--12-12-12-12-12-12-12-12--|

Verse 
|---------------------------------------------------||
|---------------------------------------------------||
|---------------------------------------------------||
|--8-----8p7-8p7-8p7-8p7--7---7p6-7p6-7p6-7p6--8----||
|--8-----8p7-8p7-8p7-8p7--7---7p6-7p6-7p6-7p6--8----||
|--8-----8p7-8p7-8p7-8p7--7---7p6-7p6-7p6-7p6--8----||

Chorus 
|--------------------------------------------------------------------||
|--------------------------------------------------------------------||
|--5-------7-----7--------7-----4-------4-----2-------2--------------||
|----7---7---7-----9----9---9-----5---5---5-----3---3---3------------||
|------7-------------10-------------7-------------5------------------||
|--------------------------------------------------------------------||

Fill
|------------------------------------------
|------------------------------------------
|------------------------------------------
|--------8p7-8p7-8p7-8p7-8p7-8p7-8p7-8p7---
|--------8p7-8p7-8p7-8p7-8p7-8p7-8p7-8p7---
|--------8p7-8p7-8p7-8p7-8p7-8p7-8p7-8p7---

Interlude
This part is the pre verse, just palm muted

2nd interlude, Where he screams “father!, Father!” etc.
you just let the notes ring

------------------------------------
------------------------------------
------------------------------------
--7-----6-----9-----12--------------
--7-----6-----9-----12--------------
--7-----6-----9-----12--------------


Then at the ending you play this
As many times till the end
-------------------------    --------
-------------------------    --------
-------------------------    ---2----
--7-----9-----6------12--    ---0----
--7-----9-----6------12--    ---0----
--7-----9-----6------12--    ---0----





Comentarios del colaborador: Pues esta es la cancion de chop suey es muy buena y suena re bien pues ojala y les guste. Si tienen alguna duda sobre la cancion escriba a el correo [email protected] o [email protected] Info de www.911tabs.com

Calificar esta versión:
Aviso: Este fichero es trabajo propio de su transcriptor y representa su interpretación personal de la canción. El material contenido en esta página es para exclusivo uso privado, por lo que se prohibe su reproducción o retransmisión, así como su uso para fines comerciales.
Más versiones de Chop Suey, System Of A Down
Chop Suey
tablatura
Chop Suey (ver 2)
tablatura
Chop Suey (ver 3)
tablatura
Chop Suey (ver 4)
tablatura
Chop Suey (ver 5)
tablatura
Chop Suey
bajo
Descubre más canciones de System Of A Down